  0
SECTION
  2
HEADER
  9
$ACADVER
  1
AC1015
  9
$ACADMAINTVER
 70
    18
  9
$DWGCODEPAGE
  3
ANSI_1252
  9
$INSBASE
 10
0.0
 20
0.0
 30
0.0
  9
$EXTMIN
 10
0.0
 20
0.0
 30
0.0
  9
$EXTMAX
 10
2.75
 20
2.125
 30
0.0
  9
$LIMMIN
 10
0.0
 20
0.0
  9
$LIMMAX
 10
2.75
 20
2.125
  9
$ORTHOMODE
 70
     0
  9
$REGENMODE
 70
     1
  9
$FILLMODE
 70
     1
  9
$QTEXTMODE
 70
     0
  9
$MIRRTEXT
 70
     0
  9
$LTSCALE
 40
0.25
  9
$ATTMODE
 70
     1
  9
$TEXTSIZE
 40
0.2
  9
$TRACEWID
 40
0.05
  9
$TEXTSTYLE
  7
Standard
  9
$CLAYER
  8
0
  9
$CELTYPE
  6
ByLayer
  9
$CECOLOR
 62
   256
  9
$CELTSCALE
 40
1.0
  9
$DISPSILH
 70
     0
  9
$DIMSCALE
 40
1.0
  9
$DIMASZ
 40
0.0708661417322835
  9
$DIMEXO
 40
0.0625
  9
$DIMDLI
 40
0.38
  9
$DIMRND
 40
0.0
  9
$DIMDLE
 40
0.0
  9
$DIMEXE
 40
0.18
  9
$DIMTP
 40
0.0
  9
$DIMTM
 40
0.0
  9
$DIMTXT
 40
0.3048000037670135
  9
$DIMCEN
 40
0.09
  9
$DIMTSZ
 40
0.0
  9
$DIMTOL
 70
     0
  9
$DIMLIM
 70
     0
  9
$DIMTIH
 70
     1
  9
$DIMTOH
 70
     1
  9
$DIMSE1
 70
     0
  9
$DIMSE2
 70
     0
  9
$DIMTAD
 70
     0
  9
$DIMZIN
 70
     0
  9
$DIMBLK
  1

  9
$DIMASO
 70
     1
  9
$DIMSHO
 70
     1
  9
$DIMPOST
  1

  9
$DIMAPOST
  1

  9
$DIMALT
 70
     0
  9
$DIMALTD
 70
     2
  9
$DIMALTF
 40
25.4
  9
$DIMLFAC
 40
1.0
  9
$DIMTOFL
 70
     0
  9
$DIMTVP
 40
0.0
  9
$DIMTIX
 70
     0
  9
$DIMSOXD
 70
     0
  9
$DIMSAH
 70
     0
  9
$DIMBLK1
  1

  9
$DIMBLK2
  1

  9
$DIMSTYLE
  2
Standard
  9
$DIMCLRD
 70
     0
  9
$DIMCLRE
 70
     0
  9
$DIMCLRT
 70
     0
  9
$DIMTFAC
 40
1.0
  9
$DIMGAP
 40
0.09
  9
$DIMJUST
 70
     0
  9
$DIMSD1
 70
     0
  9
$DIMSD2
 70
     0
  9
$DIMTOLJ
 70
     1
  9
$DIMTZIN
 70
     0
  9
$DIMALTZ
 70
     0
  9
$DIMALTTZ
 70
     0
  9
$DIMUPT
 70
     0
  9
$DIMDEC
 70
     4
  9
$DIMTDEC
 70
     4
  9
$DIMALTU
 70
     2
  9
$DIMALTTD
 70
     2
  9
$DIMTXSTY
  7
Standard
  9
$DIMAUNIT
 70
     0
  9
$DIMADEC
 70
     0
  9
$DIMALTRND
 40
0.0
  9
$DIMAZIN
 70
     0
  9
$DIMDSEP
 70
    46
  9
$DIMATFIT
 70
     3
  9
$DIMFRAC
 70
     0
  9
$DIMLDRBLK
  1

  9
$DIMLUNIT
 70
     2
  9
$DIMLWD
 70
    -2
  9
$DIMLWE
 70
    -2
  9
$DIMTMOVE
 70
     0
  9
$LUNITS
 70
     2
  9
$LUPREC
 70
     4
  9
$SKETCHINC
 40
0.1
  9
$FILLETRAD
 40
0.0
  9
$AUNITS
 70
     0
  9
$AUPREC
 70
     0
  9
$MENU
  1
.
  9
$ELEVATION
 40
0.0
  9
$PELEVATION
 40
0.0
  9
$THICKNESS
 40
0.0
  9
$LIMCHECK
 70
     0
  9
$CHAMFERA
 40
0.0
  9
$CHAMFERB
 40
0.0
  9
$CHAMFERC
 40
0.0
  9
$CHAMFERD
 40
0.0
  9
$SKPOLY
 70
     0
  9
$TDCREATE
 40
2454846.692887361
  9
$TDUCREATE
 40
2454847.026220695
  9
$TDUPDATE
 40
2454846.692887361
  9
$TDUUPDATE
 40
2454847.026220695
  9
$TDINDWG
 40
0.0000412384
  9
$TDUSRTIMER
 40
0.0000412384
  9
$USRTIMER
 70
     1
  9
$ANGBASE
 50
0.0
  9
$ANGDIR
 70
     0
  9
$PDMODE
 70
     0
  9
$PDSIZE
 40
0.0
  9
$PLINEWID
 40
0.0
  9
$SPLFRAME
 70
     0
  9
$SPLINETYPE
 70
     6
  9
$SPLINESEGS
 70
     8
  9
$HANDSEED
  5
3EB
  9
$SURFTAB1
 70
     6
  9
$SURFTAB2
 70
     6
  9
$SURFTYPE
 70
     6
  9
$SURFU
 70
     6
  9
$SURFV
 70
     6
  9
$UCSBASE
  2

  9
$UCSNAME
  2

  9
$UCSORG
 10
0.0
 20
0.0
 30
0.0
  9
$UCSXDIR
 10
1.0
 20
0.0
 30
0.0
  9
$UCSYDIR
 10
0.0
 20
1.0
 30
0.0
  9
$UCSORTHOREF
  2

  9
$UCSORTHOVIEW
 70
     0
  9
$UCSORGTOP
 10
0.0
 20
0.0
 30
0.0
  9
$UCSORGBOTTOM
 10
0.0
 20
0.0
 30
0.0
  9
$UCSORGLEFT
 10
0.0
 20
0.0
 30
0.0
  9
$UCSORGRIGHT
 10
0.0
 20
0.0
 30
0.0
  9
$UCSORGFRONT
 10
0.0
 20
0.0
 30
0.0
  9
$UCSORGBACK
 10
0.0
 20
0.0
 30
0.0
  9
$PUCSBASE
  2

  9
$PUCSNAME
  2

  9
$PUCSORG
 10
0.0
 20
0.0
 30
0.0
  9
$PUCSXDIR
 10
1.0
 20
0.0
 30
0.0
  9
$PUCSYDIR
 10
0.0
 20
1.0
 30
0.0
  9
$PUCSORTHOREF
  2

  9
$PUCSORTHOVIEW
 70
     0
  9
$PUCSORGTOP
 10
0.0
 20
0.0
 30
0.0
  9
$PUCSORGBOTTOM
 10
0.0
 20
0.0
 30
0.0
  9
$PUCSORGLEFT
 10
0.0
 20
0.0
 30
0.0
  9
$PUCSORGRIGHT
 10
0.0
 20
0.0
 30
0.0
  9
$PUCSORGFRONT
 10
0.0
 20
0.0
 30
0.0
  9
$PUCSORGBACK
 10
0.0
 20
0.0
 30
0.0
  9
$USERI1
 70
     0
  9
$USERI2
 70
     0
  9
$USERI3
 70
     0
  9
$USERI4
 70
     0
  9
$USERI5
 70
     0
  9
$USERR1
 40
0.0
  9
$USERR2
 40
0.0
  9
$USERR3
 40
0.0
  9
$USERR4
 40
0.0
  9
$USERR5
 40
0.0
  9
$WORLDVIEW
 70
     1
  9
$SHADEDGE
 70
     3
  9
$SHADEDIF
 70
    70
  9
$TILEMODE
 70
     1
  9
$MAXACTVP
 70
    64
  9
$PINSBASE
 10
0.0
 20
0.0
 30
0.0
  9
$PLIMCHECK
 70
     0
  9
$PEXTMIN
 10
0.0
 20
0.0
 30
0.0
  9
$PEXTMAX
 10
2.75
 20
2.125
 30
0.0
  9
$PLIMMIN
 10
0.0
 20
0.0
  9
$PLIMMAX
 10
2.75
 20
2.125
  9
$UNITMODE
 70
     0
  9
$VISRETAIN
 70
     1
  9
$PLINEGEN
 70
     0
  9
$PSLTSCALE
 70
     1
  9
$TREEDEPTH
 70
  3020
  9
$CMLSTYLE
  2
Standard
  9
$CMLJUST
 70
     0
  9
$CMLSCALE
 40
1.0
  9
$PROXYGRAPHICS
 70
     1
  9
$MEASUREMENT
 70
     0
  9
$CELWEIGHT
370
    -1
  9
$ENDCAPS
280
     0
  9
$JOINSTYLE
280
     0
  9
$LWDISPLAY
290
     0
  9
$INSUNITS
 70
     0
  9
$HYPERLINKBASE
  1

  9
$STYLESHEET
  1

  9
$XEDIT
290
     1
  9
$CEPSNTYPE
380
     0
  9
$PSTYLEMODE
290
     1
  9
$FINGERPRINTGUID
  2
{596D3735-6652-4E1B-B9F0-DF39A5A347DE}
  9
$VERSIONGUID
  2
{B5251864-5125-4F19-8595-140840E2A671}
  9
$EXTNAMES
290
     1
  9
$PSVPSCALE
 40
0.0
  9
$OLESTARTUP
290
     0
  0
ENDSEC
  0
SECTION
  2
CLASSES
  0
CLASS
  1
ACDBDICTIONARYWDFLT
  2
AcDbDictionaryWithDefault
  3
ObjectDBX Classes
 90
        0
280
     0
281
     0
  0
CLASS
  1
MATERIAL
  2
AcDbMaterial
  3
ObjectDBX Classes
 90
     1024
280
     0
281
     0
  0
CLASS
  1
VISUALSTYLE
  2
AcDbVisualStyle
  3
ObjectDBX Classes
 90
     4095
280
     0
281
     0
  0
CLASS
  1
TABLESTYLE
  2
AcDbTableStyle
  3
ObjectDBX Classes
 90
     4095
280
     0
281
     0
  0
CLASS
  1
DICTIONARYVAR
  2
AcDbDictionaryVar
  3
ObjectDBX Classes
 90
        0
280
     0
281
     0
  0
CLASS
  1
ACDBPLACEHOLDER
  2
AcDbPlaceHolder
  3
ObjectDBX Classes
 90
        0
280
     0
281
     0
  0
CLASS
  1
LAYOUT
  2
AcDbLayout
  3
ObjectDBX Classes
 90
        0
280
     0
281
     0
  0
ENDSEC
  0
SECTION
  2
TABLES
  0
TABLE
  2
VPORT
  5
8
330
0
100
AcDbSymbolTable
 70
     1
  0
VPORT
  5
28
330
8
100
AcDbSymbolTableRecord
100
AcDbViewportTableRecord
  2
*Active
 70
     0
 10
0.0
 20
0.0
 11
1.0
 21
1.0
 12
1.375
 22
1.0625
 13
0.0
 23
0.0
 14
1.0
 24
1.0
 15
0.0
 25
0.0
 16
0.0
 26
0.0
 36
1.0
 17
0.0
 27
0.0
 37
0.0
 40
2.125
 41
1.294117647058823
 42
50.0
 43
0.0
 44
0.0
 50
0.0
 51
0.0
 71
     0
 72
   100
 73
     1
 74
     1
 75
     0
 76
     0
 77
     0
 78
     0
281
     0
 65
     1
110
0.0
120
0.0
130
0.0
111
1.0
121
0.0
131
0.0
112
0.0
122
1.0
132
0.0
 79
     0
146
0.0
  0
ENDTAB
  0
TABLE
  2
LTYPE
  5
5
330
0
100
AcDbSymbolTable
 70
    59
  0
LTYPE
  5
29
330
5
100
AcDbSymbolTableRecord
100
AcDbLinetypeTableRecord
  2
ByBlock
 70
     0
  3

 72
    65
 73
     0
 40
0.0
  0
LTYPE
  5
2A
330
5
100
AcDbSymbolTableRecord
100
AcDbLinetypeTableRecord
  2
ByLayer
 70
     0
  3

 72
    65
 73
     0
 40
0.0
  0
LTYPE
  5
2B
330
5
100
AcDbSymbolTableRecord
100
AcDbLinetypeTableRecord
  2
Continuous
 70
     0
  3
Solid line
 72
    65
 73
     0
 40
0.0
  0
LTYPE
  5
40
330
5
100
AcDbSymbolTableRecord
100
AcDbLinetypeTableRecord
  2
BY_STANDARD
 70
     0
  3
By Standard ____________    ____    ____   _
 72
    65
 73
     6
 40
1.240299999999999
 49
0.6614
 74
     0
 49
-0.0827
 74
     0
 49
0.1654
 74
     0
 49
-0.0827
 74
     0
 49
0.1654
 74
     0
 49
-0.0827
 74
     0
  0
LTYPE
  5
41
330
5
100
AcDbSymbolTableRecord
100
AcDbLinetypeTableRecord
  2
CHAIN
 70
     0
  3
Chain ____ _ ____ _ ____ _ ____ _ ____ _ ____
 72
    65
 73
     4
 40
0.7087
 49
0.4724000000000001
 74
     0
 49
-0.0591
 74
     0
 49
0.1181
 74
     0
 49
-0.0591
 74
     0
  0
LTYPE
  5
42
330
5
100
AcDbSymbolTableRecord
100
AcDbLinetypeTableRecord
  2
DASH_DOT
 70
     0
  3
Dash dot __ . __ . __ . __ . __ . __ . __ . __
 72
    65
 73
     4
 40
0.37
 49
0.24
 74
     0
 49
-0.06
 74
     0
 49
0.01
 74
     0
 49
-0.06
 74
     0
  0
LTYPE
  5
43
330
5
100
AcDbSymbolTableRecord
100
AcDbLinetypeTableRecord
  2
DOUBLE_DASH_DOT
 70
     0
  3
Double-Dash Dot __ __ . __ __ . __ __ . __ _
 72
    65
 73
     6
 40
0.4398
 49
0.24
 74
     0
 49
-0.06
 74
     0
 49
0.0098
 74
     0
 49
-0.06
 74
     0
 49
0.01
 74
     0
 49
-0.06
 74
     0
  0
LTYPE
  5
44
330
5
100
AcDbSymbolTableRecord
100
AcDbLinetypeTableRecord
  2
DASH_TRIPLE_DOT
 70
     0
  3
Dash Triple-Dot _ . . . _ . . . _ . . . _
 72
    65
 73
     8
 40
0.51
 49
0.24
 74
     0
 49
-0.06
 74
     0
 49
0.01
 74
     0
 49
-0.06
 74
     0
 49
0.01
 74
     0
 49
-0.06
 74
     0
 49
0.01
 74
     0
 49
-0.06
 74
     0
  0
LTYPE
  5
45
330
5
100
AcDbSymbolTableRecord
100
AcDbLinetypeTableRecord
  2
DASHED
 70
     0
  3
Dashed __ __ __ __ __ __ __ __ __ __ __ __ __ _
 72
    65
 73
     2
 40
0.2067
 49
0.1654
 74
     0
 49
-0.0413
 74
     0
  0
LTYPE
  5
46
330
5
100
AcDbSymbolTableRecord
100
AcDbLinetypeTableRecord
  2
DASH_DOUBLE_DOT
 70
     0
  3
Dash Double-Dot __ . . __ . . __ . . __ . .
 72
    65
 73
     6
 40
0.4398
 49
0.24
 74
     0
 49
-0.06
 74
     0
 49
0.0098
 74
     0
 49
-0.06
 74
     0
 49
0.01
 74
     0
 49
-0.06
 74
     0
  0
LTYPE
  5
47
330
5
100
AcDbSymbolTableRecord
100
AcDbLinetypeTableRecord
  2
DASHED_SPACE
 70
     0
  3
Dashed Space __ __ __ __ __ __ __ __ __ __ __ _
 72
    65
 73
     2
 40
0.2067
 49
0.1654
 74
     0
 49
-0.0413
 74
     0
  0
LTYPE
  5
48
330
5
100
AcDbSymbolTableRecord
100
AcDbLinetypeTableRecord
  2
DOTTED
 70
     0
  3
Dotted . . . . . . . . . . . . . . . . . . . . 
 72
    65
 73
     2
 40
0.0482
 49
0.0069
 74
     0
 49
-0.0413
 74
     0
  0
LTYPE
  5
49
330
5
100
AcDbSymbolTableRecord
100
AcDbLinetypeTableRecord
  2
DOUBLE_DASH_CHAIN
 70
     0
  3
Double-Dash Chain ______  __  __  ______  __  _
 72
    65
 73
     6
 40
1.240299999999999
 49
0.6614
 74
     0
 49
-0.0827
 74
     0
 49
0.1654
 74
     0
 49
-0.0827
 74
     0
 49
0.1654
 74
     0
 49
-0.0827
 74
     0
  0
LTYPE
  5
4B
330
5
100
AcDbSymbolTableRecord
100
AcDbLinetypeTableRecord
  2
DOUBLE_DASH_DOUBLE_DOT
 70
     0
  3
Double-Dash Double-dot _ _ . . _ _ . . _
 72
    65
 73
     8
 40
0.7400000000000001
 49
0.24
 74
     0
 49
-0.06
 74
     0
 49
0.24
 74
     0
 49
-0.06
 74
     0
 49
0.01
 74
     0
 49
-0.06
 74
     0
 49
0.01
 74
     0
 49
-0.06
 74
     0
  0
LTYPE
  5
4C
330
5
100
AcDbSymbolTableRecord
100
AcDbLinetypeTableRecord
  2
DOUBLE_DASH_TRIPLE_DOT
 70
     0
  3
Double Dash Triple Dot __ __ . . . __ __ . .
 72
    65
 73
    10
 40
0.8100000000000001
 49
0.24
 74
     0
 49
-0.06
 74
     0
 49
0.24
 74
     0
 49
-0.06
 74
     0
 49
0.01
 74
     0
 49
-0.06
 74
     0
 49
0.01
 74
     0
 49
-0.06
 74
     0
 49
0.01
 74
     0
 49
-0.06
 74
     0
  0
LTYPE
  5
4D
330
5
100
AcDbSymbolTableRecord
100
AcDbLinetypeTableRecord
  2
LONG_DASH_DOTTED
 70
     0
  3
Long Dash Dotted ____ . ____ . ____ . ____ . _
 72
    65
 73
     4
 40
0.3543
 49
0.2362
 74
     0
 49
-0.0295
 74
     0
 49
0.0591
 74
     0
 49
-0.0295
 74
     0
  0
LTYPE
  5
4E
330
5
100
AcDbSymbolTableRecord
100
AcDbLinetypeTableRecord
  2
LONG_DASH_DOUBLE_DOT
 70
     0
  3
Long Dash Double Dot ________  .  .  ________  
 72
    65
 73
     6
 40
0.6799999999999999
 49
0.48
 74
     0
 49
-0.06
 74
     0
 49
0.01
 74
     0
 49
-0.06
 74
     0
 49
0.01
 74
     0
 49
-0.06
 74
     0
  0
LTYPE
  5
4F
330
5
100
AcDbSymbolTableRecord
100
AcDbLinetypeTableRecord
  2
LONG_DASH_TRIPLE_DOT
 70
     0
  3
Long Dash Triple Dot ____ ... ____ ... ____
 72
    65
 73
     8
 40
0.3689
 49
0.2362
 74
     0
 49
-0.0295
 74
     0
 49
0.0049
 74
     0
 49
-0.0295
 74
     0
 49
0.0049
 74
     0
 49
-0.0295
 74
     0
 49
0.0049
 74
     0
 49
-0.0295
 74
     0
  0
LTYPE
  5
50
330
5
100
AcDbSymbolTableRecord
100
AcDbLinetypeTableRecord
  2
BORDER
 70
     0
  3
Border __ __ . __ __ . __ __ . __ __ . __ __ .
 72
    65
 73
     6
 40
1.75
 49
0.5
 74
     0
 49
-0.25
 74
     0
 49
0.5
 74
     0
 49
-0.25
 74
     0
 49
0.0
 74
     0
 49
-0.25
 74
     0
  0
LTYPE
  5
51
330
5
100
AcDbSymbolTableRecord
100
AcDbLinetypeTableRecord
  2
BORDER2
 70
     0
  3
Border (.5x) __.__.__.__.__.__.__.__.__.__.__.
 72
    65
 73
     6
 40
0.875
 49
0.25
 74
     0
 49
-0.125
 74
     0
 49
0.25
 74
     0
 49
-0.125
 74
     0
 49
0.0
 74
     0
 49
-0.125
 74
     0
  0
LTYPE
  5
52
330
5
100
AcDbSymbolTableRecord
100
AcDbLinetypeTableRecord
  2
BORDERX2
 70
     0
  3
Border (2x) ____  ____  .  ____  ____  .  ___
 72
    65
 73
     6
 40
3.5
 49
1.0
 74
     0
 49
-0.5
 74
     0
 49
1.0
 74
     0
 49
-0.5
 74
     0
 49
0.0
 74
     0
 49
-0.5
 74
     0
  0
LTYPE
  5
53
330
5
100
AcDbSymbolTableRecord
100
AcDbLinetypeTableRecord
  2
CENTER
 70
     0
  3
Center ____ _ ____ _ ____ _ ____ _ ____ _ ____
 72
    65
 73
     4
 40
2.0
 49
1.25
 74
     0
 49
-0.25
 74
     0
 49
0.25
 74
     0
 49
-0.25
 74
     0
  0
LTYPE
  5
54
330
5
100
AcDbSymbolTableRecord
100
AcDbLinetypeTableRecord
  2
CENTER2
 70
     0
  3
Center (.5x) ___ _ ___ _ ___ _ ___ _ ___ _ ___
 72
    65
 73
     4
 40
1.125
 49
0.75
 74
     0
 49
-0.125
 74
     0
 49
0.125
 74
     0
 49
-0.125
 74
     0
  0
LTYPE
  5
55
330
5
100
AcDbSymbolTableRecord
100
AcDbLinetypeTableRecord
  2
CENTERX2
 70
     0
  3
Center (2x) ________  __  ________  __  _____
 72
    65
 73
     4
 40
4.0
 49
2.5
 74
     0
 49
-0.5
 74
     0
 49
0.5
 74
     0
 49
-0.5
 74
     0
  0
LTYPE
  5
56
330
5
100
AcDbSymbolTableRecord
100
AcDbLinetypeTableRecord
  2
DASHDOT2
 70
     0
  3
Dash dot (.5x) _._._._._._._._._._._._._._._.
 72
    65
 73
     4
 40
0.5
 49
0.25
 74
     0
 49
-0.125
 74
     0
 49
0.0
 74
     0
 49
-0.125
 74
     0
  0
LTYPE
  5
57
330
5
100
AcDbSymbolTableRecord
100
AcDbLinetypeTableRecord
  2
DASHDOTX2
 70
     0
  3
Dash dot (2x) ____  .  ____  .  ____  .  ___
 72
    65
 73
     4
 40
2.0
 49
1.0
 74
     0
 49
-0.5
 74
     0
 49
0.0
 74
     0
 49
-0.5
 74
     0
  0
LTYPE
  5
59
330
5
100
AcDbSymbolTableRecord
100
AcDbLinetypeTableRecord
  2
DASHED2
 70
     0
  3
Dashed (.5x) _ _ _ _ _ _ _ _ _ _ _ _ _ _ _ _ _
 72
    65
 73
     2
 40
0.375
 49
0.25
 74
     0
 49
-0.125
 74
     0
  0
LTYPE
  5
5A
330
5
100
AcDbSymbolTableRecord
100
AcDbLinetypeTableRecord
  2
DASHEDX2
 70
     0
  3
Dashed (2x) ____  ____  ____  ____  ____  ___
 72
    65
 73
     2
 40
1.5
 49
1.0
 74
     0
 49
-0.5
 74
     0
  0
LTYPE
  5
5B
330
5
100
AcDbSymbolTableRecord
100
AcDbLinetypeTableRecord
  2
DIVIDE
 70
     0
  3
Divide ____ . . ____ . . ____ . . ____ . . ____
 72
    65
 73
     6
 40
1.25
 49
0.5
 74
     0
 49
-0.25
 74
     0
 49
0.0
 74
     0
 49
-0.25
 74
     0
 49
0.0
 74
     0
 49
-0.25
 74
     0
  0
LTYPE
  5
5C
330
5
100
AcDbSymbolTableRecord
100
AcDbLinetypeTableRecord
  2
DIVIDE2
 70
     0
  3
Divide (.5x) __..__..__..__..__..__..__..__.._
 72
    65
 73
     6
 40
0.625
 49
0.25
 74
     0
 49
-0.125
 74
     0
 49
0.0
 74
     0
 49
-0.125
 74
     0
 49
0.0
 74
     0
 49
-0.125
 74
     0
  0
LTYPE
  5
5D
330
5
100
AcDbSymbolTableRecord
100
AcDbLinetypeTableRecord
  2
DIVIDEX2
 70
     0
  3
Divide (2x) ________  .  .  ________  .  .  _
 72
    65
 73
     6
 40
2.5
 49
1.0
 74
     0
 49
-0.5
 74
     0
 49
0.0
 74
     0
 49
-0.5
 74
     0
 49
0.0
 74
     0
 49
-0.5
 74
     0
  0
LTYPE
  5
5E
330
5
100
AcDbSymbolTableRecord
100
AcDbLinetypeTableRecord
  2
DOT
 70
     0
  3
Dot . . . . . . . . . . . . . . . . . . . . . .
 72
    65
 73
     2
 40
0.25
 49
0.0
 74
     0
 49
-0.25
 74
     0
  0
LTYPE
  5
5F
330
5
100
AcDbSymbolTableRecord
100
AcDbLinetypeTableRecord
  2
DOT2
 70
     0
  3
Dot (.5x) .....................................
 72
    65
 73
     2
 40
0.125
 49
0.0
 74
     0
 49
-0.125
 74
     0
  0
LTYPE
  5
60
330
5
100
AcDbSymbolTableRecord
100
AcDbLinetypeTableRecord
  2
DOTX2
 70
     0
  3
Dot (2x) .  .  .  .  .  .  .  .  .  .  .  .  . 
 72
    65
 73
     2
 40
0.5
 49
0.0
 74
     0
 49
-0.5
 74
     0
  0
LTYPE
  5
61
330
5
100
AcDbSymbolTableRecord
100
AcDbLinetypeTableRecord
  2
HIDDEN
 70
     0
  3
Hidden __ __ __ __ __ __ __ __ __ __ __ __ __ _
 72
    65
 73
     2
 40
0.375
 49
0.25
 74
     0
 49
-0.125
 74
     0
  0
LTYPE
  5
62
330
5
100
AcDbSymbolTableRecord
100
AcDbLinetypeTableRecord
  2
HIDDEN2
 70
     0
  3
Hidden (.5x) _ _ _ _ _ _ _ _ _ _ _ _ _ _ _ _ _
 72
    65
 73
     2
 40
0.1875
 49
0.125
 74
     0
 49
-0.0625
 74
     0
  0
LTYPE
  5
63
330
5
100
AcDbSymbolTableRecord
100
AcDbLinetypeTableRecord
  2
HIDDENX2
 70
     0
  3
Hidden (2x) ____ ____ ____ ____ ____ ____ ____
 72
    65
 73
     2
 40
0.75
 49
0.5
 74
     0
 49
-0.25
 74
     0
  0
LTYPE
  5
64
330
5
100
AcDbSymbolTableRecord
100
AcDbLinetypeTableRecord
  2
PHANTOM
 70
     0
  3
Phantom ______  __  __  ______  __  __  ______
 72
    65
 73
     6
 40
2.5
 49
1.25
 74
     0
 49
-0.25
 74
     0
 49
0.25
 74
     0
 49
-0.25
 74
     0
 49
0.25
 74
     0
 49
-0.25
 74
     0
  0
LTYPE
  5
65
330
5
100
AcDbSymbolTableRecord
100
AcDbLinetypeTableRecord
  2
PHANTOM2
 70
     0
  3
Phantom (.5x) ___ _ _ ___ _ _ ___ _ _ ___ _ _
 72
    65
 73
     6
 40
1.25
 49
0.625
 74
     0
 49
-0.125
 74
     0
 49
0.125
 74
     0
 49
-0.125
 74
     0
 49
0.125
 74
     0
 49
-0.125
 74
     0
  0
LTYPE
  5
66
330
5
100
AcDbSymbolTableRecord
100
AcDbLinetypeTableRecord
  2
PHANTOMX2
 70
     0
  3
Phantom (2x) ____________    ____    ____   _
 72
    65
 73
     6
 40
5.0
 49
2.5
 74
     0
 49
-0.5
 74
     0
 49
0.5
 74
     0
 49
-0.5
 74
     0
 49
0.5
 74
     0
 49
-0.5
 74
     0
  0
LTYPE
  5
67
330
5
100
AcDbSymbolTableRecord
100
AcDbLinetypeTableRecord
  2
ACAD_ISO02W100
 70
     0
  3
ISO dash __ __ __ __ __ __ __ __ __ __ __ __ __
 72
    65
 73
     2
 40
0.59
 49
0.47
 74
     0
 49
-0.12
 74
     0
  0
LTYPE
  5
68
330
5
100
AcDbSymbolTableRecord
100
AcDbLinetypeTableRecord
  2
ACAD_ISO03W100
 70
     0
  3
ISO dash space __    __    __    __    __    __
 72
    65
 73
     2
 40
1.179999999999999
 49
0.47
 74
     0
 49
-0.71
 74
     0
  0
LTYPE
  5
69
330
5
100
AcDbSymbolTableRecord
100
AcDbLinetypeTableRecord
  2
ACAD_ISO04W100
 70
     0
  3
ISO long-dash dot ____ . ____ . ____ . ____ . _
 72
    65
 73
     4
 40
1.179999999999999
 49
0.9399999999999998
 74
     0
 49
-0.12
 74
     0
 49
0.0
 74
     0
 49
-0.12
 74
     0
  0
LTYPE
  5
6A
330
5
100
AcDbSymbolTableRecord
100
AcDbLinetypeTableRecord
  2
ACAD_ISO05W100
 70
     0
  3
ISO long-dash double-dot ____ .. ____ .. ____ .
 72
    65
 73
     6
 40
1.299999999999999
 49
0.9399999999999998
 74
     0
 49
-0.12
 74
     0
 49
0.0
 74
     0
 49
-0.12
 74
     0
 49
0.0
 74
     0
 49
-0.12
 74
     0
  0
LTYPE
  5
6B
330
5
100
AcDbSymbolTableRecord
100
AcDbLinetypeTableRecord
  2
ACAD_ISO06W100
 70
     0
  3
ISO long-dash triple-dot ____ ... ____ ... ____
 72
    65
 73
     8
 40
1.419999999999999
 49
0.9399999999999998
 74
     0
 49
-0.12
 74
     0
 49
0.0
 74
     0
 49
-0.12
 74
     0
 49
0.0
 74
     0
 49
-0.12
 74
     0
 49
0.0
 74
     0
 49
-0.12
 74
     0
  0
LTYPE
  5
6C
330
5
100
AcDbSymbolTableRecord
100
AcDbLinetypeTableRecord
  2
ACAD_ISO07W100
 70
     0
  3
ISO dot . . . . . . . . . . . . . . . . . . . .
 72
    65
 73
     2
 40
0.12
 49
0.0
 74
     0
 49
-0.12
 74
     0
  0
LTYPE
  5
6D
330
5
100
AcDbSymbolTableRecord
100
AcDbLinetypeTableRecord
  2
ACAD_ISO08W100
 70
     0
  3
ISO long-dash short-dash ____ __ ____ __ ____ _
 72
    65
 73
     4
 40
0.95
 49
0.47
 74
     0
 49
-0.12
 74
     0
 49
0.24
 74
     0
 49
-0.12
 74
     0
  0
LTYPE
  5
6E
330
5
100
AcDbSymbolTableRecord
100
AcDbLinetypeTableRecord
  2
ACAD_ISO09W100
 70
     0
  3
ISO long-dash double-short-dash ____ __ __ ____
 72
    65
 73
     6
 40
1.31
 49
0.47
 74
     0
 49
-0.12
 74
     0
 49
0.24
 74
     0
 49
-0.12
 74
     0
 49
0.24
 74
     0
 49
-0.12
 74
     0
  0
LTYPE
  5
6F
330
5
100
AcDbSymbolTableRecord
100
AcDbLinetypeTableRecord
  2
ACAD_ISO10W100
 70
     0
  3
ISO dash dot __ . __ . __ . __ . __ . __ . __ .
 72
    65
 73
     4
 40
0.71
 49
0.47
 74
     0
 49
-0.12
 74
     0
 49
0.0
 74
     0
 49
-0.12
 74
     0
  0
LTYPE
  5
70
330
5
100
AcDbSymbolTableRecord
100
AcDbLinetypeTableRecord
  2
ACAD_ISO11W100
 70
     0
  3
ISO double-dash dot __ __ . __ __ . __ __ . __ 
 72
    65
 73
     6
 40
1.299999999999999
 49
0.47
 74
     0
 49
-0.12
 74
     0
 49
0.47
 74
     0
 49
-0.12
 74
     0
 49
0.0
 74
     0
 49
-0.12
 74
     0
  0
LTYPE
  5
71
330
5
100
AcDbSymbolTableRecord
100
AcDbLinetypeTableRecord
  2
ACAD_ISO12W100
 70
     0
  3
ISO dash double-dot __ . . __ . . __ . . __ . .
 72
    65
 73
     6
 40
0.8299999999999998
 49
0.47
 74
     0
 49
-0.12
 74
     0
 49
0.0
 74
     0
 49
-0.12
 74
     0
 49
0.0
 74
     0
 49
-0.12
 74
     0
  0
LTYPE
  5
72
330
5
100
AcDbSymbolTableRecord
100
AcDbLinetypeTableRecord
  2
ACAD_ISO13W100
 70
     0
  3
ISO double-dash double-dot __ __ . . __ __ . . 
 72
    65
 73
     8
 40
1.419999999999999
 49
0.47
 74
     0
 49
-0.12
 74
     0
 49
0.47
 74
     0
 49
-0.12
 74
     0
 49
0.0
 74
     0
 49
-0.12
 74
     0
 49
0.0
 74
     0
 49
-0.12
 74
     0
  0
LTYPE
  5
73
330
5
100
AcDbSymbolTableRecord
100
AcDbLinetypeTableRecord
  2
ACAD_ISO14W100
 70
     0
  3
ISO dash triple-dot __ . . . __ . . . __ . . . 
 72
    65
 73
     8
 40
0.95
 49
0.47
 74
     0
 49
-0.12
 74
     0
 49
0.0
 74
     0
 49
-0.12
 74
     0
 49
0.0
 74
     0
 49
-0.12
 74
     0
 49
0.0
 74
     0
 49
-0.12
 74
     0
  0
LTYPE
  5
74
330
5
100
AcDbSymbolTableRecord
100
AcDbLinetypeTableRecord
  2
ACAD_ISO15W100
 70
     0
  3
ISO double-dash triple-dot __ __ . . . __ __ . 
 72
    65
 73
    10
 40
1.539999999999999
 49
0.47
 74
     0
 49
-0.12
 74
     0
 49
0.47
 74
     0
 49
-0.12
 74
     0
 49
0.0
 74
     0
 49
-0.12
 74
     0
 49
0.0
 74
     0
 49
-0.12
 74
     0
 49
0.0
 74
     0
 49
-0.12
 74
     0
  0
LTYPE
  5
77
330
5
100
AcDbSymbolTableRecord
100
AcDbLinetypeTableRecord
  2
FENCELINE1
 70
     0
  3
Fenceline circle ----0-----0----0-----0----0---
 72
    65
 73
     4
 40
1.45
 49
0.25
 74
     0
 49
-0.1
 74
     4
 75
   133
340
76
 46
0.1
 50
0.0
 44
-0.1
 45
0.0
 49
-0.1
 74
     0
 49
1.0
 74
     0
  0
LTYPE
  5
78
330
5
100
AcDbSymbolTableRecord
100
AcDbLinetypeTableRecord
  2
FENCELINE2
 70
     0
  3
Fenceline square ----[]-----[]----[]-----[]----
 72
    65
 73
     4
 40
1.45
 49
0.25
 74
     0
 49
-0.1
 74
     4
 75
   132
340
76
 46
0.1
 50
0.0
 44
-0.1
 45
0.0
 49
-0.1
 74
     0
 49
1.0
 74
     0
  0
LTYPE
  5
79
330
5
100
AcDbSymbolTableRecord
100
AcDbLinetypeTableRecord
  2
TRACKS
 70
     0
  3
Tracks -|-|-|-|-|-|-|-|-|-|-|-|-|-|-|-|-|-|-|-|
 72
    65
 73
     2
 40
0.3
 49
0.15
 74
     4
 75
   130
340
76
 46
0.25
 50
0.0
 44
0.0
 45
0.0
 49
0.15
 74
     0
  0
LTYPE
  5
7A
330
5
100
AcDbSymbolTableRecord
100
AcDbLinetypeTableRecord
  2
BATTING
 70
     0
  3
Batting SSSSSSSSSSSSSSSSSSSSSSSSSSSSSSSSSSSSSSS
 72
    65
 73
     4
 40
0.4001000000000001
 49
0.0001
 74
     0
 49
-0.1
 74
     4
 75
   134
340
76
 46
0.1
 50
0.0
 44
-0.1
 45
0.0
 49
-0.2
 74
     4
 75
   134
340
76
 46
0.1
 50
180.0
 44
0.1
 45
0.0
 49
-0.1
 74
     0
  0
LTYPE
  5
7B
330
5
100
AcDbSymbolTableRecord
100
AcDbLinetypeTableRecord
  2
HOT_WATER_SUPPLY
 70
     0
  3
Hot water supply ---- HW ---- HW ---- HW ----
 72
    65
 73
     3
 40
0.9
 49
0.5
 74
     0
 49
-0.2
 74
     2
 75
     0
340
26
 46
0.1
 50
0.0
 44
-0.1
 45
-0.05
  9
HW
 49
-0.2
 74
     0
  0
LTYPE
  5
7C
330
5
100
AcDbSymbolTableRecord
100
AcDbLinetypeTableRecord
  2
GAS_LINE
 70
     0
  3
Gas line ----GAS----GAS----GAS----GAS----GAS---
 72
    65
 73
     3
 40
0.95
 49
0.5
 74
     0
 49
-0.2
 74
     2
 75
     0
340
26
 46
0.1
 50
0.0
 44
-0.1
 45
-0.05
  9
GAS
 49
-0.25
 74
     0
  0
LTYPE
  5
7D
330
5
100
AcDbSymbolTableRecord
100
AcDbLinetypeTableRecord
  2
ZIGZAG
 70
     0
  3
Zig zag /\/\/\/\/\/\/\/\/\/\/\/\/\/\/\/\/\/\/\/
 72
    65
 73
     4
 40
0.8001000000000001
 49
0.0001
 74
     0
 49
-0.2
 74
     4
 75
   131
340
76
 46
0.2
 50
0.0
 44
-0.2
 45
0.0
 49
-0.4
 74
     4
 75
   131
340
76
 46
0.2
 50
180.0
 44
0.2
 45
0.0
 49
-0.2
 74
     0
  0
ENDTAB
  0
TABLE
  2
LAYER
  5
2
330
0
100
AcDbSymbolTable
 70
    25
  0
LAYER
  5
25
330
2
100
AcDbSymbolTableRecord
100
AcDbLayerTableRecord
  2
0
 70
     0
 62
     7
  6
Continuous
370
    -3
390
F
  0
LAYER
  5
81
330
2
100
AcDbSymbolTableRecord
100
AcDbLayerTableRecord
  2
Border (ANSI)
 70
     0
 62
     7
  6
Continuous
370
    70
390
F
  0
LAYER
  5
86
330
2
100
AcDbSymbolTableRecord
100
AcDbLayerTableRecord
  2
Dimension (ANSI)
 70
     0
 62
     7
  6
Continuous
370
    25
390
F
  0
LAYER
  5
89
330
2
100
AcDbSymbolTableRecord
100
AcDbLayerTableRecord
  2
Hidden Narrow (ANSI)
 70
     0
 62
     7
  6
DASHED
370
    25
390
F
  0
LAYER
  5
8E
330
2
100
AcDbSymbolTableRecord
100
AcDbLayerTableRecord
  2
Symbol (ANSI)
 70
     0
 62
     7
  6
Continuous
370
    25
390
F
  0
LAYER
  5
91
330
2
100
AcDbSymbolTableRecord
100
AcDbLayerTableRecord
  2
Visible (ANSI)
 70
     0
 62
     7
  6
Continuous
370
    50
390
F
  0
ENDTAB
  0
TABLE
  2
STYLE
  5
3
330
0
100
AcDbSymbolTable
 70
    12
  0
STYLE
  5
26
330
3
100
AcDbSymbolTableRecord
100
AcDbTextStyleTableRecord
  2
Standard
 70
     0
 40
0.0
 41
1.0
 50
0.0
 71
     0
 42
0.2
  3
TAHOMA.TTF
  4

1001
ACAD
1000
Tahoma
1071
      256
  0
STYLE
  5
76
330
3
100
AcDbSymbolTableRecord
100
AcDbTextStyleTableRecord
  2

 70
     1
 40
0.0
 41
1.0
 50
0.0
 71
     0
 42
0.2
  3
ltypeshp.shx
  4

  0
STYLE
  5
96
330
3
100
AcDbSymbolTableRecord
100
AcDbTextStyleTableRecord
  2
Label Text (ANSI)
 70
     0
 40
0.0
 41
1.0
 50
0.0
 71
     0
 42
0.2
  3
TAHOMA.TTF
  4

1001
ACAD
1000
Tahoma
1071
      256
  0
STYLE
  5
97
330
3
100
AcDbSymbolTableRecord
100
AcDbTextStyleTableRecord
  2
Label Text (DIN)
 70
     0
 40
0.0
 41
1.0
 50
0.0
 71
     0
 42
0.2
  3
isocpeur.ttf
  4

1001
ACAD
1000
ISOCPEUR
1071
      256
  0
STYLE
  5
98
330
3
100
AcDbSymbolTableRecord
100
AcDbTextStyleTableRecord
  2
Label Text (ISO)
 70
     0
 40
0.0
 41
1.0
 50
0.0
 71
     0
 42
0.2
  3
TAHOMA.TTF
  4

1001
ACAD
1000
Tahoma
1071
      256
  0
STYLE
  5
99
330
3
100
AcDbSymbolTableRecord
100
AcDbTextStyleTableRecord
  2
Label Text (JIS)
 70
     0
 40
0.0
 41
1.0
 50
0.0
 71
     0
 42
0.2
  3
TAHOMA.TTF
  4

1001
ACAD
1000
Tahoma
1071
      256
  0
STYLE
  5
9A
330
3
100
AcDbSymbolTableRecord
100
AcDbTextStyleTableRecord
  2
Note Text (ANSI)
 70
     0
 40
0.0
 41
1.0
 50
0.0
 71
     0
 42
0.2
  3
TAHOMA.TTF
  4

1001
ACAD
1000
Tahoma
1071
      256
  0
STYLE
  5
9B
330
3
100
AcDbSymbolTableRecord
100
AcDbTextStyleTableRecord
  2
Note Text (DIN)
 70
     0
 40
0.0
 41
1.0
 50
0.0
 71
     0
 42
0.2
  3
isocpeur.ttf
  4

1001
ACAD
1000
ISOCPEUR
1071
      256
  0
STYLE
  5
9C
330
3
100
AcDbSymbolTableRecord
100
AcDbTextStyleTableRecord
  2
Note Text (ISO)
 70
     0
 40
0.0
 41
1.0
 50
0.0
 71
     0
 42
0.2
  3
TAHOMA.TTF
  4

1001
ACAD
1000
Tahoma
1071
      256
  0
STYLE
  5
9D
330
3
100
AcDbSymbolTableRecord
100
AcDbTextStyleTableRecord
  2
Note Text (JIS)
 70
     0
 40
0.0
 41
1.0
 50
0.0
 71
     0
 42
0.2
  3
TAHOMA.TTF
  4

1001
ACAD
1000
Tahoma
1071
      256
  0
STYLE
  5
F3
330
3
100
AcDbSymbolTableRecord
100
AcDbTextStyleTableRecord
  2
Text Style29
 70
     0
 40
0.0
 41
1.0
 50
0.0
 71
     0
 42
0.2
  3
TAHOMA.TTF
  4

1001
ACAD
1000
Tahoma
1071
      256
  0
STYLE
  5
1E2
330
3
100
AcDbSymbolTableRecord
100
AcDbTextStyleTableRecord
  2
Text Style6
 70
     0
 40
0.0
 41
1.0
 50
0.0
 71
     0
 42
0.2
  3
AIGDT___.TTF
  4

1001
ACAD
1000
AIGDT
1071
      514
  0
ENDTAB
  0
TABLE
  2
VIEW
  5
6
330
0
100
AcDbSymbolTable
 70
     0
  0
ENDTAB
  0
TABLE
  2
UCS
  5
7
330
0
100
AcDbSymbolTable
 70
     0
  0
ENDTAB
  0
TABLE
  2
APPID
  5
9
330
0
100
AcDbSymbolTable
 70
     1
  0
APPID
  5
27
330
9
100
AcDbSymbolTableRecord
100
AcDbRegAppTableRecord
  2
ACAD
 70
     0
  0
ENDTAB
  0
TABLE
  2
DIMSTYLE
  5
A
330
0
100
AcDbSymbolTable
 70
    17
100
AcDbDimStyleTable
 71
     0
  0
DIMSTYLE
105
3F
330
A
100
AcDbSymbolTableRecord
100
AcDbDimStyleTableRecord
  2
Standard
 70
     0
340
26
  0
DIMSTYLE
105
9E
330
A
100
AcDbSymbolTableRecord
100
AcDbDimStyleTableRecord
  2
Architectural (ANSI)
 70
     0
 40
0.25
 41
0.0984251946210861
 42
0.0625
 43
0.2362204724409449
 44
0.125
 45
0.00000001
 46
0.3937007874015748
 78
     4
 79
     3
140
0.1200000047683716
144
0.0833333333333333
147
0.031496062992126
171
     1
176
   256
177
   256
178
   256
272
     2
274
     1
276
     2
277
     4
284
    12
286
    12
340
9A
371
    -1
372
    -1
  0
DIMSTYLE
105
9F
330
A
100
AcDbSymbolTableRecord
100
AcDbDimStyleTableRecord
  2
Architectural (ANSI)$7
 70
     0
 40
0.25
 41
0.0984251946210861
 42
0.0625
 43
0.2362204724409449
 44
0.125
 45
0.00000001
 46
0.3937007874015748
 78
     4
 79
     3
140
0.1200000047683716
144
0.0833333333333333
147
0.031496062992126
171
     1
176
   256
177
   256
178
   256
272
     2
274
     1
276
     2
277
     4
284
    12
286
    12
340
9A
371
    -1
372
    -1
  0
DIMSTYLE
105
A0
330
A
100
AcDbSymbolTableRecord
100
AcDbDimStyleTableRecord
  2
Default - Fraction (ANSI)
 70
     0
 40
0.25
 41
0.0984251946210861
 42
0.0625
 43
0.2362204724409449
 44
0.125
 45
0.00000001
 46
0.3937007874015748
 78
    12
 79
     3
140
0.1200000047683716
147
0.031496062992126
171
     1
176
   256
177
   256
178
   256
272
     2
274
     1
276
     2
277
     5
284
    12
286
    12
340
9A
371
    -1
372
    -1
  0
DIMSTYLE
105
A1
330
A
100
AcDbSymbolTableRecord
100
AcDbDimStyleTableRecord
  2
Default - Fraction (ANSI)$7
 70
     0
 40
0.25
 41
0.0984251946210861
 42
0.0625
 43
0.2362204724409449
 44
0.125
 45
0.00000001
 46
0.3937007874015748
 78
    12
 79
     3
140
0.1200000047683716
147
0.031496062992126
171
     1
176
   256
177
   256
178
   256
272
     2
274
     1
276
     2
277
     5
284
    12
286
    12
340
9A
371
    -1
372
    -1
  0
DIMSTYLE
105
A2
330
A
100
AcDbSymbolTableRecord
100
AcDbDimStyleTableRecord
  2
Default - mm (ANSI)
 70
     0
 40
0.25
 41
0.0984251946210861
 42
0.063
 43
0.2362204724409449
 44
0.125
 45
0.00000001
 46
0.3937007874015748
 73
     0
140
0.1200000047683716
143
1.0
144
25.4
147
0.031496062992126
171
     1
176
   256
177
   256
178
   256
179
     1
271
     2
272
     2
274
     1
340
9A
371
    -1
372
    -1
  0
DIMSTYLE
105
A3
330
A
100
AcDbSymbolTableRecord
100
AcDbDimStyleTableRecord
  2
Default - mm (ANSI)$7
 70
     0
 40
0.25
 41
0.0984251946210861
 42
0.063
 43
0.2362204724409449
 44
0.125
 45
0.00000001
 46
0.3937007874015748
 73
     0
140
0.1200000047683716
143
1.0
144
25.4
147
0.031496062992126
171
     1
176
   256
177
   256
178
   256
179
     1
271
     2
272
     2
274
     1
340
9A
371
    -1
372
    -1
  0
DIMSTYLE
105
A4
330
A
100
AcDbSymbolTableRecord
100
AcDbDimStyleTableRecord
  2
Default - mm [in] (ANSI)
 70
     0
  4
 in
 40
0.25
 41
0.0984251946210861
 42
0.063
 43
0.25
 44
0.125
 45
0.00000001
 46
0.3937007874015748
 73
     0
 78
     4
 79
     1
140
0.1200000047683716
143
0.03937
144
25.4
147
0.031496062992126
170
     1
171
     3
176
   256
177
   256
178
   256
179
     1
271
     2
272
     2
274
     3
284
     4
286
     4
340
9A
371
    -1
372
    -1
  0
DIMSTYLE
105
A5
330
A
100
AcDbSymbolTableRecord
100
AcDbDimStyleTableRecord
  2
Default - mm [in] (ANSI)$7
 70
     0
  4
 in
 40
0.25
 41
0.0984251946210861
 42
0.063
 43
0.25
 44
0.125
 45
0.00000001
 46
0.3937007874015748
 73
     0
 78
     4
 79
     1
140
0.1200000047683716
143
0.03937
144
25.4
147
0.031496062992126
170
     1
171
     3
176
   256
177
   256
178
   256
179
     1
271
     2
272
     2
274
     3
284
     4
286
     4
340
9A
371
    -1
372
    -1
  0
DIMSTYLE
105
A6
330
A
100
AcDbSymbolTableRecord
100
AcDbDimStyleTableRecord
  2
Default (ANSI)
 70
     0
  3
 in
 40
0.25
 41
0.0984251946210861
 42
0.0625
 43
0.2362204724409449
 44
0.125
 45
0.00000001
 46
0.3937007874015748
140
0.1200000047683716
143
1.0
147
0.031496062992126
171
     3
176
   256
177
   256
178
   256
271
     3
272
     3
274
     3
340
9A
371
    -1
372
    -1
  0
DIMSTYLE
105
A7
330
A
100
AcDbSymbolTableRecord
100
AcDbDimStyleTableRecord
  2
Default (ANSI)$7
 70
     0
  3
 in
 40
0.25
 41
0.0984251946210861
 42
0.0625
 43
0.2362204724409449
 44
0.125
 45
0.00000001
 46
0.3937007874015748
140
0.1200000047683716
143
1.0
147
0.031496062992126
171
     3
176
   256
177
   256
178
   256
271
     3
272
     3
274
     3
340
9A
371
    -1
372
    -1
  0
DIMSTYLE
105
A8
330
A
100
AcDbSymbolTableRecord
100
AcDbDimStyleTableRecord
  2
Default (ANSI)-01
 70
     0
  3
 in
 40
0.25
 41
0.0984251946210861
 42
0.0625
 43
0.2362204724409449
 44
0.125
 45
0.00000001
 46
0.3937007874015748
140
0.1200000047683716
143
1.0
147
0.031496062992126
171
     3
176
   256
177
   256
178
   256
271
     3
272
     3
274
     3
340
9A
371
    -1
372
    -1
  0
DIMSTYLE
105
A9
330
A
100
AcDbSymbolTableRecord
100
AcDbDimStyleTableRecord
  2
Default (ANSI)-01$7
 70
     0
  3
 in
 40
0.25
 41
0.0984251946210861
 42
0.0625
 43
0.2362204724409449
 44
0.125
 45
0.00000001
 46
0.3937007874015748
140
0.1200000047683716
143
1.0
147
0.031496062992126
171
     3
176
   256
177
   256
178
   256
271
     3
272
     3
274
     3
340
9A
371
    -1
372
    -1
  0
DIMSTYLE
105
B8
330
A
100
AcDbSymbolTableRecord
100
AcDbDimStyleTableRecord
  2
Miscellaneous Object (ANSI)
 70
     0
 40
0.25
 41
0.1968503892421722
 42
0.0625
 43
0.2362204724409449
 44
0.125
 45
0.00000001
 46
0.3937007874015748
140
0.1799999922513962
146
0.666666721856155
147
0.031496062992126
171
     1
176
   256
177
   256
178
   256
271
     3
272
     2
274
     1
340
96
341
AA
371
    -1
372
    -1
  0
DIMSTYLE
105
B9
330
A
100
AcDbSymbolTableRecord
100
AcDbDimStyleTableRecord
  2
Miscellaneous Object (ANSI)$7
 70
     0
 40
0.25
 41
0.1959999948740005
 42
0.0625
 43
0.2362204724409449
 44
0.125
 45
0.00000001
 46
0.3937007874015748
140
0.1799999922513962
146
0.666666721856155
147
0.031496062992126
171
     1
176
   256
177
   256
178
   256
271
     3
272
     2
274
     1
340
96
341
AA
371
    -1
372
    -1
  0
DIMSTYLE
105
BA
330
A
100
AcDbSymbolTableRecord
100
AcDbDimStyleTableRecord
  2
Alternate (ANSI)
 70
     0
 40
0.25
 41
0.0979999974370003
340
26
342
BB
  0
DIMSTYLE
105
CC
330
A
100
AcDbSymbolTableRecord
100
AcDbDimStyleTableRecord
  2
Datum (ANSI)
 70
     0
 40
0.25
 41
0.0979999974370003
340
26
342
BB
  0
ENDTAB
  0
TABLE
  2
BLOCK_RECORD
  5
1
330
0
100
AcDbSymbolTable
 70
    21
  0
BLOCK_RECORD
  5
37
330
1
100
AcDbSymbolTableRecord
100
AcDbBlockTableRecord
  2
*Model_Space
340
3A
  0
BLOCK_RECORD
  5
33
330
1
100
AcDbSymbolTableRecord
100
AcDbBlockTableRecord
  2
*Paper_Space
340
36
  0
BLOCK_RECORD
  5
3B
330
1
100
AcDbSymbolTableRecord
100
AcDbBlockTableRecord
  2
*Paper_Space0
340
3E
  0
BLOCK_RECORD
  5
AA
330
1
100
AcDbSymbolTableRecord
100
AcDbBlockTableRecord
  2
Filled-1
340
0
  0
BLOCK_RECORD
  5
BB
330
1
100
AcDbSymbolTableRecord
100
AcDbBlockTableRecord
  2
_Closed
340
0
  0
BLOCK_RECORD
  5
C2
330
1
100
AcDbSymbolTableRecord
100
AcDbBlockTableRecord
  2
DatumFilled45
340
0
  0
BLOCK_RECORD
  5
CD
330
1
100
AcDbSymbolTableRecord
100
AcDbBlockTableRecord
  2
Borders Default Border
340
0
102
{BLKREFS
331
FE
102
}
  0
BLOCK_RECORD
  5
196
330
1
100
AcDbSymbolTableRecord
100
AcDbBlockTableRecord
  2
Origin Indicator Symbol2
340
0
102
{BLKREFS
331
1BC
102
}
  0
BLOCK_RECORD
  5
1BD
330
1
100
AcDbSymbolTableRecord
100
AcDbBlockTableRecord
  2
Hole Table2
340
0
102
{BLKREFS
331
249
102
}
  0
BLOCK_RECORD
  5
24A
330
1
100
AcDbSymbolTableRecord
100
AcDbBlockTableRecord
  2
Origin Indicator Symbol3
340
0
102
{BLKREFS
331
270
102
}
  0
BLOCK_RECORD
  5
271
330
1
100
AcDbSymbolTableRecord
100
AcDbBlockTableRecord
  2
Hole Table3
340
0
102
{BLKREFS
331
2FB
102
}
  0
BLOCK_RECORD
  5
2FD
330
1
100
AcDbSymbolTableRecord
100
AcDbBlockTableRecord
  2
Leader Text3
340
0
102
{BLKREFS
331
30E
102
}
  0
BLOCK_RECORD
  5
30F
330
1
100
AcDbSymbolTableRecord
100
AcDbBlockTableRecord
  2
Leader Text4
340
0
102
{BLKREFS
331
320
102
}
  0
BLOCK_RECORD
  5
321
330
1
100
AcDbSymbolTableRecord
100
AcDbBlockTableRecord
  2
Leader Text5
340
0
102
{BLKREFS
331
332
102
}
  0
BLOCK_RECORD
  5
333
330
1
100
AcDbSymbolTableRecord
100
AcDbBlockTableRecord
  2
Leader Text6
340
0
102
{BLKREFS
331
344
102
}
  0
BLOCK_RECORD
  5
345
330
1
100
AcDbSymbolTableRecord
100
AcDbBlockTableRecord
  2
Leader Text7
340
0
102
{BLKREFS
331
356
102
}
  0
BLOCK_RECORD
  5
357
330
1
100
AcDbSymbolTableRecord
100
AcDbBlockTableRecord
  2
Leader Text8
340
0
102
{BLKREFS
331
368
102
}
  0
BLOCK_RECORD
  5
369
330
1
100
AcDbSymbolTableRecord
100
AcDbBlockTableRecord
  2
Leader Text9
340
0
102
{BLKREFS
331
37A
102
}
  0
BLOCK_RECORD
  5
37B
330
1
100
AcDbSymbolTableRecord
100
AcDbBlockTableRecord
  2
Leader Text10
340
0
102
{BLKREFS
331
38C
102
}
  0
BLOCK_RECORD
  5
38E
330
1
100
AcDbSymbolTableRecord
100
AcDbBlockTableRecord
  2
Leader Text11
340
0
102
{BLKREFS
331
39F
102
}
  0
BLOCK_RECORD
  5
3A0
330
1
100
AcDbSymbolTableRecord
100
AcDbBlockTableRecord
  2
Leader Text12
340
0
102
{BLKREFS
331
3B1
102
}
  0
BLOCK_RECORD
  5
3B2
330
1
100
AcDbSymbolTableRecord
100
AcDbBlockTableRecord
  2
Leader Text13
340
0
102
{BLKREFS
331
3C3
102
}
  0
BLOCK_RECORD
  5
3C4
330
1
100
AcDbSymbolTableRecord
100
AcDbBlockTableRecord
  2
Leader Text14
340
0
102
{BLKREFS
331
3D5
102
}
  0
ENDTAB
  0
ENDSEC
  0
SECTION
  2
BLOCKS
  0
BLOCK
  5
38
330
37
100
AcDbEntity
  8
0
100
AcDbBlockBegin
  2
*Model_Space
 70
     0
 10
0.0
 20
0.0
 30
0.0
  3
*Model_Space
  1

  0
ENDBLK
  5
39
330
37
100
AcDbEntity
  8
0
100
AcDbBlockEnd
  0
BLOCK
  5
34
330
33
100
AcDbEntity
 67
     1
  8
0
100
AcDbBlockBegin
  2
*Paper_Space
 70
     0
 10
0.0
 20
0.0
 30
0.0
  3
*Paper_Space
  1

  0
ENDBLK
  5
35
330
33
100
AcDbEntity
 67
     1
  8
0
100
AcDbBlockEnd
  0
BLOCK
  5
3C
330
3B
100
AcDbEntity
 67
     1
  8
0
100
AcDbBlockBegin
  2
*Paper_Space0
 70
     0
 10
0.0
 20
0.0
 30
0.0
  3
*Paper_Space0
  1

  0
ENDBLK
  5
3D
330
3B
100
AcDbEntity
 67
     1
  8
0
100
AcDbBlockEnd
  0
BLOCK
  5
AB
330
AA
100
AcDbEntity
  8
0
100
AcDbBlockBegin
  2
Filled-1
 70
     0
 10
0.0
 20
0.0
 30
0.0
  3
Filled-1
  1

  0
LINE
  5
AD
330
AA
100
AcDbEntity
  8
0
 62
     0
100
AcDbLine
 10
-0.9999999999999998
 20
0.0
 30
0.0
 11
0.0
 21
0.0
 31
0.0
  0
POLYLINE
  5
AE
330
AA
100
AcDbEntity
  8
0
 62
     0
100
AcDb2dPolyline
 66
     1
 10
0.0
 20
0.0
 30
0.0
 70
   128
  0
VERTEX
  5
AF
330
AE
100
AcDbEntity
  8
0
 62
     0
100
AcDbVertex
100
AcDb2dVertex
 10
-0.9999999999999998
 20
-0.0994897959183674
 30
0.0
  0
VERTEX
  5
B0
330
AE
100
AcDbEntity
  8
0
 62
     0
100
AcDbVertex
100
AcDb2dVertex
 10
0.0
 20
0.0
 30
0.0
  0
VERTEX
  5
B2
330
AE
100
AcDbEntity
  8
0
 62
     0
100
AcDbVertex
100
AcDb2dVertex
 10
-0.9999999999999998
 20
0.0994897959183674
 30
0.0
  0
VERTEX
  5
B3
330
AE
100
AcDbEntity
  8
0
 62
     0
100
AcDbVertex
100
AcDb2dVertex
 10
-0.9999999999999998
 20
-0.0994897959183674
 30
0.0
  0
SEQEND
  5
B1
330
AE
100
AcDbEntity
  8
0
 62
     0
  0
SOLID
  5
B4
330
AA
100
AcDbEntity
  8
0
 62
     0
100
AcDbTrace
 10
-0.9999999999999998
 20
-0.0994897959183674
 30
0.0
 11
0.0
 21
0.0
 31
0.0
 12
-0.9999999999999998
 22
0.0994897959183674
 32
0.0
 13
-0.9999999999999998
 23
-0.0994897959183674
 33
0.0
  0
LINE
  5
B5
330
AA
100
AcDbEntity
  8
0
 62
     0
100
AcDbLine
 10
-0.9999999999999998
 20
-0.0994897959183674
 30
0.0
 11
0.0
 21
0.0
 31
0.0
  0
LINE
  5
B6
330
AA
100
AcDbEntity
  8
0
 62
     0
100
AcDbLine
 10
0.0
 20
0.0
 30
0.0
 11
-0.9999999999999998
 21
0.0994897959183674
 31
0.0
  0
LINE
  5
B7
330
AA
100
AcDbEntity
  8
0
 62
     0
100
AcDbLine
 10
-0.9999999999999998
 20
0.0994897959183674
 30
0.0
 11
-0.9999999999999998
 21
-0.0994897959183674
 31
0.0
  0
ENDBLK
  5
AC
330
AA
100
AcDbEntity
  8
0
100
AcDbBlockEnd
  0
BLOCK
  5
C0
330
BB
100
AcDbEntity
  8
0
100
AcDbBlockBegin
  2
_Closed
 70
     0
 10
0.0
 20
0.0
 30
0.0
  3
_Closed
  1

  0
LINE
  5
BC
330
BB
100
AcDbEntity
  8
0
  6
ByBlock
 62
     0
370
    -2
100
AcDbLine
 10
-1.0
 20
0.1666666666666666
 30
0.0
 11
0.0
 21
0.0
 31
0.0
  0
LINE
  5
BD
330
BB
100
AcDbEntity
  8
0
  6
ByBlock
 62
     0
370
    -2
100
AcDbLine
 10
0.0
 20
0.0
 30
0.0
 11
-1.0
 21
-0.1666666666666666
 31
0.0
  0
LINE
  5
BE
330
BB
100
AcDbEntity
  8
0
  6
ByBlock
 62
     0
370
    -2
100
AcDbLine
 10
-1.0
 20
0.1666666666666666
 30
0.0
 11
-1.0
 21
-0.1666666666666666
 31
0.0
  0
LINE
  5
BF
330
BB
100
AcDbEntity
  8
0
  6
ByBlock
 62
     0
370
    -2
100
AcDbLine
 10
0.0
 20
0.0
 30
0.0
 11
-1.0
 21
0.0
 31
0.0
  0
ENDBLK
  5
C1
330
BB
100
AcDbEntity
  8
0
100
AcDbBlockEnd
  0
BLOCK
  5
C3
330
C2
100
AcDbEntity
  8
0
100
AcDbBlockBegin
  2
DatumFilled45
 70
     0
 10
0.0
 20
0.0
 30
0.0
  3
DatumFilled45
  1

  0
POLYLINE
  5
C5
330
C2
100
AcDbEntity
  8
0
 62
     0
100
AcDb2dPolyline
 66
     1
 10
0.0
 20
0.0
 30
0.0
 70
   128
  0
VERTEX
  5
C6
330
C5
100
AcDbEntity
  8
0
 62
     0
100
AcDbVertex
100
AcDb2dVertex
 10
0.0
 20
0.9999999999999998
 30
0.0
  0
VERTEX
  5
C7
330
C5
100
AcDbEntity
  8
0
 62
     0
100
AcDbVertex
100
AcDb2dVertex
 10
0.0
 20
-0.9999999999999998
 30
0.0
  0
VERTEX
  5
C9
330
C5
100
AcDbEntity
  8
0
 62
     0
100
AcDbVertex
100
AcDb2dVertex
 10
-0.9999999999999998
 20
0.0
 30
0.0
  0
VERTEX
  5
CA
330
C5
100
AcDbEntity
  8
0
 62
     0
100
AcDbVertex
100
AcDb2dVertex
 10
0.0
 20
0.9999999999999998
 30
0.0
  0
SEQEND
  5
C8
330
C5
100
AcDbEntity
  8
0
 62
     0
  0
SOLID
  5
CB
330
C2
100
AcDbEntity
  8
0
 62
     0
100
AcDbTrace
 10
0.0
 20
0.9999999999999998
 30
0.0
 11
0.0
 21
-0.9999999999999998
 31
0.0
 12
-0.9999999999999998
 22
0.0
 32
0.0
 13
0.0
 23
0.9999999999999998
 33
0.0
  0
ENDBLK
  5
C4
330
C2
100
AcDbEntity
  8
0
100
AcDbBlockEnd
  0
BLOCK
  5
CE
330
CD
100
AcDbEntity
  8
0
100
AcDbBlockBegin
  2
Borders Default Border
 70
     0
 10
0.0
 20
0.0
 30
0.0
  3
Borders Default Border
  1

  0
POLYLINE
  5
D0
330
CD
100
AcDbEntity
  8
Border (ANSI)
100
AcDb2dPolyline
 66
     1
 10
0.0
 20
0.0
 30
0.0
 70
   128
  0
VERTEX
  5
D1
330
D0
100
AcDbEntity
  8
Border (ANSI)
100
AcDbVertex
100
AcDb2dVertex
 10
0.380000002740875
 20
0.380000002740875
 30
0.0
  0
VERTEX
  5
D2
330
D0
100
AcDbEntity
  8
Border (ANSI)
100
AcDbVertex
100
AcDb2dVertex
 10
0.380000002740875
 20
8.119999893068328
 30
0.0
  0
VERTEX
  5
D4
330
D0
100
AcDbEntity
  8
Border (ANSI)
100
AcDbVertex
100
AcDb2dVertex
 10
10.62000004325326
 20
8.119999893068328
 30
0.0
  0
VERTEX
  5
D5
330
D0
100
AcDbEntity
  8
Border (ANSI)
100
AcDbVertex
100
AcDb2dVertex
 10
10.62000004325326
 20
0.380000002740875
 30
0.0
  0
VERTEX
  5
D6
330
D0
100
AcDbEntity
  8
Border (ANSI)
100
AcDbVertex
100
AcDb2dVertex
 10
0.380000002740875
 20
0.380000002740875
 30
0.0
  0
SEQEND
  5
D3
330
D0
100
AcDbEntity
  8
Border (ANSI)
  0
POLYLINE
  5
D7
330
CD
100
AcDbEntity
  8
Border (ANSI)
100
AcDb2dPolyline
 66
     1
 10
0.0
 20
0.0
 30
0.0
 70
   128
  0
VERTEX
  5
D8
330
D7
100
AcDbEntity
  8
Border (ANSI)
100
AcDbVertex
100
AcDb2dVertex
 10
5.500000105129451
 20
0.1299999947623005
 30
0.0
  0
VERTEX
  5
D9
330
D7
100
AcDbEntity
  8
Border (ANSI)
100
AcDbVertex
100
AcDb2dVertex
 10
5.500000105129451
 20
0.380000002740875
 30
0.0
  0
VERTEX
  5
DB
330
D7
100
AcDbEntity
  8
Border (ANSI)
100
AcDbVertex
100
AcDb2dVertex
 10
5.413397466103861
 20
0.2300000096869281
 30
0.0
  0
VERTEX
  5
DC
330
D7
100
AcDbEntity
  8
Border (ANSI)
100
AcDbVertex
100
AcDb2dVertex
 10
5.586602368692712
 20
0.2300000096869281
 30
0.0
  0
VERTEX
  5
DD
330
D7
100
AcDbEntity
  8
Border (ANSI)
100
AcDbVertex
100
AcDb2dVertex
 10
5.500000105129451
 20
0.380000002740875
 30
0.0
  0
SEQEND
  5
DA
330
D7
100
AcDbEntity
  8
Border (ANSI)
  0
POLYLINE
  5
DE
330
CD
100
AcDbEntity
  8
Border (ANSI)
100
AcDb2dPolyline
 66
     1
 10
0.0
 20
0.0
 30
0.0
 70
   128
  0
VERTEX
  5
DF
330
DE
100
AcDbEntity
  8
Border (ANSI)
100
AcDbVertex
100
AcDb2dVertex
 10
5.500000105129451
 20
8.369999983179287
 30
0.0
  0
VERTEX
  5
E0
330
DE
100
AcDbEntity
  8
Border (ANSI)
100
AcDbVertex
100
AcDb2dVertex
 10
5.500000105129451
 20
8.119999893068328
 30
0.0
  0
VERTEX
  5
E2
330
DE
100
AcDbEntity
  8
Border (ANSI)
100
AcDbVertex
100
AcDb2dVertex
 10
5.413397466103861
 20
8.270000097319835
 30
0.0
  0
VERTEX
  5
E3
330
DE
100
AcDbEntity
  8
Border (ANSI)
100
AcDbVertex
100
AcDb2dVertex
 10
5.586602368692712
 20
8.270000097319835
 30
0.0
  0
VERTEX
  5
E4
330
DE
100
AcDbEntity
  8
Border (ANSI)
100
AcDbVertex
100
AcDb2dVertex
 10
5.500000105129451
 20
8.119999893068328
 30
0.0
  0
SEQEND
  5
E1
330
DE
100
AcDbEntity
  8
Border (ANSI)
  0
POLYLINE
  5
E5
330
CD
100
AcDbEntity
  8
Border (ANSI)
100
AcDb2dPolyline
 66
     1
 10
0.0
 20
0.0
 30
0.0
 70
   128
  0
VERTEX
  5
E6
330
E5
100
AcDbEntity
  8
Border (ANSI)
100
AcDbVertex
100
AcDb2dVertex
 10
0.1299999947623005
 20
4.250000030036986
 30
0.0
  0
VERTEX
  5
E7
330
E5
100
AcDbEntity
  8
Border (ANSI)
100
AcDbVertex
100
AcDb2dVertex
 10
0.380000002740875
 20
4.250000030036986
 30
0.0
  0
VERTEX
  5
E9
330
E5
100
AcDbEntity
  8
Border (ANSI)
100
AcDbVertex
100
AcDb2dVertex
 10
0.2300000096869281
 20
4.336602669062576
 30
0.0
  0
VERTEX
  5
EA
330
E5
100
AcDbEntity
  8
Border (ANSI)
100
AcDbVertex
100
AcDb2dVertex
 10
0.2300000096869281
 20
4.163397391011395
 30
0.0
  0
VERTEX
  5
EB
330
E5
100
AcDbEntity
  8
Border (ANSI)
100
AcDbVertex
100
AcDb2dVertex
 10
0.380000002740875
 20
4.250000030036986
 30
0.0
  0
SEQEND
  5
E8
330
E5
100
AcDbEntity
  8
Border (ANSI)
  0
POLYLINE
  5
EC
330
CD
100
AcDbEntity
  8
Border (ANSI)
100
AcDb2dPolyline
 66
     1
 10
0.0
 20
0.0
 30
0.0
 70
   128
  0
VERTEX
  5
ED
330
EC
100
AcDbEntity
  8
Border (ANSI)
100
AcDbVertex
100
AcDb2dVertex
 10
10.87000013336422
 20
4.250000030036986
 30
0.0
  0
VERTEX
  5
EE
330
EC
100
AcDbEntity
  8
Border (ANSI)
100
AcDbVertex
100
AcDb2dVertex
 10
10.62000004325326
 20
4.250000030036986
 30
0.0
  0
VERTEX
  5
F0
330
EC
100
AcDbEntity
  8
Border (ANSI)
100
AcDbVertex
100
AcDb2dVertex
 10
10.77000024750476
 20
4.336602669062576
 30
0.0
  0
VERTEX
  5
F1
330
EC
100
AcDbEntity
  8
Border (ANSI)
100
AcDbVertex
100
AcDb2dVertex
 10
10.77000024750476
 20
4.163397391011395
 30
0.0
  0
VERTEX
  5
F2
330
EC
100
AcDbEntity
  8
Border (ANSI)
100
AcDbVertex
100
AcDb2dVertex
 10
10.62000004325326
 20
4.250000030036986
 30
0.0
  0
SEQEND
  5
EF
330
EC
100
AcDbEntity
  8
Border (ANSI)
  0
MTEXT
  5
F4
330
CD
100
AcDbEntity
  8
Border (ANSI)
100
AcDbMText
 10
8.24092395498058
 20
8.16
 30
0.0
 40
0.1200000014830762
 41
0.0
 71
     7
 72
     1
  1
1
  7
Text Style29
 73
     1
 44
1.0
1001
ACAD
1000
MTEXTBEGIN
1070
    73
1070
     1
1070
    44
1040
1.0
1070
    74
1070
     0
1000
MTEXTEND
  0
MTEXT
  5
F7
330
CD
100
AcDbEntity
  8
Border (ANSI)
100
AcDbMText
 10
8.24092395498058
 20
0.2199999985169238
 30
0.0
 40
0.1200000014830762
 41
0.0
 71
     7
 72
     1
  1
1
  7
Text Style29
 73
     1
 44
1.0
1001
ACAD
1000
MTEXTBEGIN
1070
    73
1070
     1
1070
    44
1040
1.0
1070
    74
1070
     0
1000
MTEXTEND
  0
MTEXT
  5
F8
330
CD
100
AcDbEntity
  8
Border (ANSI)
100
AcDbMText
 10
2.722276993858532
 20
8.16
 30
0.0
 40
0.1200000014830762
 41
0.0
 71
     7
 72
     1
  1
2
  7
Text Style29
 73
     1
 44
1.0
1001
ACAD
1000
MTEXTBEGIN
1070
    73
1070
     1
1070
    44
1040
1.0
1070
    74
1070
     0
1000
MTEXTEND
  0
MTEXT
  5
F9
330
CD
100
AcDbEntity
  8
Border (ANSI)
100
AcDbMText
 10
2.722276993858532
 20
0.2199999985169238
 30
0.0
 40
0.1200000014830762
 41
0.0
 71
     7
 72
     1
  1
2
  7
Text Style29
 73
     1
 44
1.0
1001
ACAD
1000
MTEXTBEGIN
1070
    73
1070
     1
1070
    44
1040
1.0
1070
    74
1070
     0
1000
MTEXTEND
  0
MTEXT
  5
FA
330
CD
100
AcDbEntity
  8
Border (ANSI)
100
AcDbMText
 10
0.2281865791448458
 20
2.064999999258461
 30
0.0
 40
0.1200000014830762
 41
0.0
 71
     7
 72
     1
  1
A
  7
Text Style29
 73
     1
 44
1.0
1001
ACAD
1000
MTEXTBEGIN
1070
    73
1070
     1
1070
    44
1040
1.0
1070
    74
1070
     0
1000
MTEXTEND
  0
MTEXT
  5
FB
330
CD
100
AcDbEntity
  8
Border (ANSI)
100
AcDbMText
 10
10.66818658062792
 20
2.064999999258461
 30
0.0
 40
0.1200000014830762
 41
0.0
 71
     7
 72
     1
  1
A
  7
Text Style29
 73
     1
 44
1.0
1001
ACAD
1000
MTEXTBEGIN
1070
    73
1070
     1
1070
    44
1040
1.0
1070
    74
1070
     0
1000
MTEXTEND
  0
MTEXT
  5
FC
330
CD
100
AcDbEntity
  8
Border (ANSI)
100
AcDbMText
 10
0.2554072225563169
 20
6.314999999258461
 30
0.0
 40
0.1200000014830762
 41
0.0
 71
     7
 72
     1
  1
B
  7
Text Style29
 73
     1
 44
1.0
1001
ACAD
1000
MTEXTBEGIN
1070
    73
1070
     1
1070
    44
1040
1.0
1070
    74
1070
     0
1000
MTEXTEND
  0
MTEXT
  5
FD
330
CD
100
AcDbEntity
  8
Border (ANSI)
100
AcDbMText
 10
10.69540722403939
 20
6.314999999258461
 30
0.0
 40
0.1200000014830762
 41
0.0
 71
     7
 72
     1
  1
B
  7
Text Style29
 73
     1
 44
1.0
1001
ACAD
1000
MTEXTBEGIN
1070
    73
1070
     1
1070
    44
1040
1.0
1070
    74
1070
     0
1000
MTEXTEND
  0
ENDBLK
  5
CF
330
CD
100
AcDbEntity
  8
0
100
AcDbBlockEnd
  0
BLOCK
  5
197
330
196
100
AcDbEntity
  8
0
100
AcDbBlockBegin
  2
Origin Indicator Symbol2
 70
     0
 10
0.0
 20
0.0
 30
0.0
  3
Origin Indicator Symbol2
  1

  0
CIRCLE
  5
199
330
196
100
AcDbEntity
  8
Dimension (ANSI)
100
AcDbCircle
 10
4.210573554022555
 20
5.53058161017411
 30
0.0
 40
0.0984251968503937
  0
LINE
  5
19A
102
{ACAD_REACTORS
330
19C
102
}
330
196
100
AcDbEntity
  8
Dimension (ANSI)
100
AcDbLine
 10
4.210573554022555
 20
5.629006807024504
 30
0.0
 11
4.308998750872949
 21
5.53058161017411
 31
0.0
  0
ARC
  5
19B
102
{ACAD_REACTORS
330
19C
102
}
330
196
100
AcDbEntity
  8
Dimension (ANSI)
100
AcDbCircle
 10
4.210573554022555
 20
5.53058161017411
 30
0.0
 40
0.0984251968503937
100
AcDbArc
 50
0.0
 51
90.0
  0
HATCH
  5
19C
330
196
100
AcDbEntity
  8
Dimension (ANSI)
100
AcDbHatch
 10
0.0
 20
0.0
 30
0.0
210
0.0
220
0.0
230
1.0
  2
SOLID
 70
     1
 71
     1
 91
        1
 92
        0
 93
        2
 72
     1
 10
4.210573554022555
 20
5.629006807024504
 11
4.308998750872948
 21
5.53058161017411
 72
     2
 10
4.210573554022555
 20
5.53058161017411
 40
0.0984251968503937
 50
0.0
 51
90.0
 73
     1
 97
        2
330
19A
330
19B
 75
     0
 76
     1
 98
        1
 10
0.0
 20
0.0
  0
LINE
  5
19D
102
{ACAD_REACTORS
330
19F
102
}
330
196
100
AcDbEntity
  8
Dimension (ANSI)
100
AcDbLine
 10
4.210573554022555
 20
5.432156413323717
 30
0.0
 11
4.112148357172161
 21
5.53058161017411
 31
0.0
  0
ARC
  5
19E
102
{ACAD_REACTORS
330
19F
102
}
330
196
100
AcDbEntity
  8
Dimension (ANSI)
100
AcDbCircle
 10
4.210573554022555
 20
5.53058161017411
 30
0.0
 40
0.0984251968503937
100
AcDbArc
 50
180.0
 51
270.0
  0
HATCH
  5
19F
330
196
100
AcDbEntity
  8
Dimension (ANSI)
100
AcDbHatch
 10
0.0
 20
0.0
 30
0.0
210
0.0
220
0.0
230
1.0
  2
SOLID
 70
     1
 71
     1
 91
        1
 92
        0
 93
        2
 72
     1
 10
4.210573554022555
 20
5.432156413323717
 11
4.112148357172161
 21
5.53058161017411
 72
     2
 10
4.210573554022555
 20
5.53058161017411
 40
0.0984251968503937
 50
180.0
 51
270.0
 73
     1
 97
        2
330
19D
330
19E
 75
     0
 76
     1
 98
        1
 10
0.0
 20
0.0
  0
POLYLINE
  5
1A0
330
196
100
AcDbEntity
  8
Dimension (ANSI)
100
AcDb2dPolyline
 66
     1
 10
0.0
 20
0.0
 30
0.0
 70
   128
  0
VERTEX
  5
1A1
330
1A0
100
AcDbEntity
  8
Dimension (ANSI)
100
AcDbVertex
100
AcDb2dVertex
 10
4.210573481762502
 20
5.530581511850432
 30
0.0
  0
VERTEX
  5
1A2
330
1A0
100
AcDbEntity
  8
Dimension (ANSI)
100
AcDbVertex
100
AcDb2dVertex
 10
4.308998678612896
 20
5.530581511850432
 30
0.0
  0
VERTEX
  5
1A4
330
1A0
100
AcDbEntity
  8
Dimension (ANSI)
100
AcDbVertex
100
AcDb2dVertex
 10
4.210573481762502
 20
5.629006708700825
 30
0.0
  0
VERTEX
  5
1A5
330
1A0
100
AcDbEntity
  8
Dimension (ANSI)
100
AcDbVertex
100
AcDb2dVertex
 10
4.210573481762502
 20
5.530581511850432
 30
0.0
  0
SEQEND
  5
1A3
330
1A0
100
AcDbEntity
  8
Dimension (ANSI)
  0
SOLID
  5
1A6
330
196
100
AcDbEntity
  8
Dimension (ANSI)
100
AcDbTrace
 10
4.210573481762502
 20
5.530581511850432
 30
0.0
 11
4.308998678612896
 21
5.530581511850432
 31
0.0
 12
4.210573481762502
 22
5.629006708700825
 32
0.0
 13
4.210573481762502
 23
5.530581511850432
 33
0.0
  0
POLYLINE
  5
1A7
330
196
100
AcDbEntity
  8
Dimension (ANSI)
100
AcDb2dPolyline
 66
     1
 10
0.0
 20
0.0
 30
0.0
 70
   128
  0
VERTEX
  5
1A8
330
1A7
100
AcDbEntity
  8
Dimension (ANSI)
100
AcDbVertex
100
AcDb2dVertex
 10
4.210573481762502
 20
5.530581511850432
 30
0.0
  0
VERTEX
  5
1A9
330
1A7
100
AcDbEntity
  8
Dimension (ANSI)
100
AcDbVertex
100
AcDb2dVertex
 10
4.210573481762502
 20
5.629006708700825
 30
0.0
  0
VERTEX
  5
1AB
330
1A7
100
AcDbEntity
  8
Dimension (ANSI)
100
AcDbVertex
100
AcDb2dVertex
 10
4.210573481762502
 20
5.432156315000037
 30
0.0
  0
VERTEX
  5
1AC
330
1A7
100
AcDbEntity
  8
Dimension (ANSI)
100
AcDbVertex
100
AcDb2dVertex
 10
4.210573481762502
 20
5.530581511850432
 30
0.0
  0
SEQEND
  5
1AA
330
1A7
100
AcDbEntity
  8
Dimension (ANSI)
  0
SOLID
  5
1AD
330
196
100
AcDbEntity
  8
Dimension (ANSI)
100
AcDbTrace
 10
4.210573481762502
 20
5.530581511850432
 30
0.0
 11
4.210573481762502
 21
5.629006708700825
 31
0.0
 12
4.210573481762502
 22
5.432156315000037
 32
0.0
 13
4.210573481762502
 23
5.530581511850432
 33
0.0
  0
POLYLINE
  5
1AE
330
196
100
AcDbEntity
  8
Dimension (ANSI)
100
AcDb2dPolyline
 66
     1
 10
0.0
 20
0.0
 30
0.0
 70
   128
  0
VERTEX
  5
1AF
330
1AE
100
AcDbEntity
  8
Dimension (ANSI)
100
AcDbVertex
100
AcDb2dVertex
 10
4.210573481762502
 20
5.530581511850432
 30
0.0
  0
VERTEX
  5
1B0
330
1AE
100
AcDbEntity
  8
Dimension (ANSI)
100
AcDbVertex
100
AcDb2dVertex
 10
4.210573481762502
 20
5.432156315000037
 30
0.0
  0
VERTEX
  5
1B2
330
1AE
100
AcDbEntity
  8
Dimension (ANSI)
100
AcDbVertex
100
AcDb2dVertex
 10
4.112148284912109
 20
5.530581511850432
 30
0.0
  0
VERTEX
  5
1B3
330
1AE
100
AcDbEntity
  8
Dimension (ANSI)
100
AcDbVertex
100
AcDb2dVertex
 10
4.210573481762502
 20
5.530581511850432
 30
0.0
  0
SEQEND
  5
1B1
330
1AE
100
AcDbEntity
  8
Dimension (ANSI)
  0
SOLID
  5
1B4
330
196
100
AcDbEntity
  8
Dimension (ANSI)
100
AcDbTrace
 10
4.210573481762502
 20
5.530581511850432
 30
0.0
 11
4.210573481762502
 21
5.432156315000037
 31
0.0
 12
4.112148284912109
 22
5.530581511850432
 32
0.0
 13
4.210573481762502
 23
5.530581511850432
 33
0.0
  0
POLYLINE
  5
1B5
330
196
100
AcDbEntity
  8
Dimension (ANSI)
100
AcDb2dPolyline
 66
     1
 10
0.0
 20
0.0
 30
0.0
 70
   128
  0
VERTEX
  5
1B6
330
1B5
100
AcDbEntity
  8
Dimension (ANSI)
100
AcDbVertex
100
AcDb2dVertex
 10
4.210573481762502
 20
5.530581511850432
 30
0.0
  0
VERTEX
  5
1B7
330
1B5
100
AcDbEntity
  8
Dimension (ANSI)
100
AcDbVertex
100
AcDb2dVertex
 10
4.112148284912109
 20
5.530581511850432
 30
0.0
  0
VERTEX
  5
1B9
330
1B5
100
AcDbEntity
  8
Dimension (ANSI)
100
AcDbVertex
100
AcDb2dVertex
 10
4.210573481762502
 20
5.530581511850432
 30
0.0
  0
VERTEX
  5
1BA
330
1B5
100
AcDbEntity
  8
Dimension (ANSI)
100
AcDbVertex
100
AcDb2dVertex
 10
4.210573481762502
 20
5.530581511850432
 30
0.0
  0
SEQEND
  5
1B8
330
1B5
100
AcDbEntity
  8
Dimension (ANSI)
  0
SOLID
  5
1BB
330
196
100
AcDbEntity
  8
Dimension (ANSI)
100
AcDbTrace
 10
4.210573481762502
 20
5.530581511850432
 30
0.0
 11
4.112148284912109
 21
5.530581511850432
 31
0.0
 12
4.210573481762502
 22
5.530581511850432
 32
0.0
 13
4.210573481762502
 23
5.530581511850432
 33
0.0
  0
ENDBLK
  5
198
330
196
100
AcDbEntity
  8
0
100
AcDbBlockEnd
  0
BLOCK
  5
1BE
330
1BD
100
AcDbEntity
  8
0
100
AcDbBlockBegin
  2
Hole Table2
 70
     0
 10
0.0
 20
0.0
 30
0.0
  3
Hole Table2
  1

  0
MTEXT
  5
1C0
330
1BD
100
AcDbEntity
  8
Symbol (ANSI)
100
AcDbMText
 10
7.232614916628779
 20
7.255885641656361
 30
0.0
 40
0.1200000014830762
 41
0.0
 71
     7
 72
     1
  1
Hole Table
  7
Text Style29
 73
     1
 44
1.0
1001
ACAD
1000
MTEXTBEGIN
1070
    73
1070
     1
1070
    44
1040
1.0
1070
    74
1070
     0
1000
MTEXTEND
  0
LINE
  5
1C1
330
1BD
100
AcDbEntity
  8
Symbol (ANSI)
100
AcDbLine
 10
4.868639031405628
 20
7.072813609431054
 30
0.0
 11
5.305738853851527
 21
7.072813609431054
 31
0.0
  0
LINE
  5
1C2
330
1BD
100
AcDbEntity
  8
Symbol (ANSI)
100
AcDbLine
 10
5.305738853851527
 20
7.072813609431054
 30
0.0
 11
5.305738853851527
 21
6.578792722625445
 31
0.0
  0
LINE
  5
1C3
330
1BD
100
AcDbEntity
  8
Symbol (ANSI)
100
AcDbLine
 10
4.868639031405628
 20
6.578792722625445
 30
0.0
 11
5.305738853851527
 21
6.578792722625445
 31
0.0
  0
MTEXT
  5
1C4
330
1BD
100
AcDbEntity
  8
Symbol (ANSI)
100
AcDbMText
 10
4.909776069450561
 20
6.76327480346227
 30
0.0
 40
0.1200000014830762
 41
0.0
 71
     7
 72
     1
  1
HOLE
  7
Text Style29
 73
     1
 44
1.875
1001
ACAD
1000
MTEXTBEGIN
1070
    73
1070
     1
1070
    44
1040
1.875
1070
    74
1070
     0
1000
MTEXTEND
  0
LINE
  5
1C5
330
1BD
100
AcDbEntity
  8
Symbol (ANSI)
100
AcDbLine
 10
5.305738853851527
 20
7.072813609431054
 30
0.0
 11
6.01474841499936
 21
7.072813609431054
 31
0.0
  0
LINE
  5
1C6
330
1BD
100
AcDbEntity
  8
Symbol (ANSI)
100
AcDbLine
 10
5.305738853851527
 20
7.072813609431054
 30
0.0
 11
5.305738853851527
 21
6.578792722625445
 31
0.0
  0
LINE
  5
1C7
330
1BD
100
AcDbEntity
  8
Symbol (ANSI)
100
AcDbLine
 10
6.01474841499936
 20
7.072813609431054
 30
0.0
 11
6.01474841499936
 21
6.578792722625445
 31
0.0
  0
LINE
  5
1C8
330
1BD
100
AcDbEntity
  8
Symbol (ANSI)
100
AcDbLine
 10
5.305738853851527
 20
6.578792722625445
 30
0.0
 11
6.01474841499936
 21
6.578792722625445
 31
0.0
  0
MTEXT
  5
1C9
330
1BD
100
AcDbEntity
  8
Symbol (ANSI)
100
AcDbMText
 10
5.463355905689287
 20
6.765803166489821
 30
0.0
 40
0.1200000014830762
 41
0.0
 71
     7
 72
     1
  1
XDIM
  7
Text Style29
 73
     1
 44
1.0
1001
ACAD
1000
MTEXTBEGIN
1070
    73
1070
     1
1070
    44
1040
1.0
1070
    74
1070
     0
1000
MTEXTEND
  0
LINE
  5
1CA
330
1BD
100
AcDbEntity
  8
Symbol (ANSI)
100
AcDbLine
 10
6.01474841499936
 20
7.072813609431054
 30
0.0
 11
6.659144314304209
 21
7.072813609431054
 31
0.0
  0
LINE
  5
1CB
330
1BD
100
AcDbEntity
  8
Symbol (ANSI)
100
AcDbLine
 10
6.01474841499936
 20
7.072813609431054
 30
0.0
 11
6.01474841499936
 21
6.578792722625445
 31
0.0
  0
LINE
  5
1CC
330
1BD
100
AcDbEntity
  8
Symbol (ANSI)
100
AcDbLine
 10
6.659144314304209
 20
7.072813609431054
 30
0.0
 11
6.659144314304209
 21
6.578792722625445
 31
0.0
  0
LINE
  5
1CD
330
1BD
100
AcDbEntity
  8
Symbol (ANSI)
100
AcDbLine
 10
6.01474841499936
 20
6.578792722625445
 30
0.0
 11
6.659144314304209
 21
6.578792722625445
 31
0.0
  0
MTEXT
  5
1CE
330
1BD
100
AcDbEntity
  8
Symbol (ANSI)
100
AcDbMText
 10
6.137323205115557
 20
6.765803166489821
 30
0.0
 40
0.1200000014830762
 41
0.0
 71
     7
 72
     1
  1
YDIM
  7
Text Style29
 73
     1
 44
1.0
1001
ACAD
1000
MTEXTBEGIN
1070
    73
1070
     1
1070
    44
1040
1.0
1070
    74
1070
     0
1000
MTEXTEND
  0
LINE
  5
1CF
330
1BD
100
AcDbEntity
  8
Symbol (ANSI)
100
AcDbLine
 10
6.659144314304209
 20
7.072813609431054
 30
0.0
 11
10.32444733652447
 21
7.072813609431054
 31
0.0
  0
LINE
  5
1D0
330
1BD
100
AcDbEntity
  8
Symbol (ANSI)
100
AcDbLine
 10
6.659144314304209
 20
7.072813609431054
 30
0.0
 11
6.659144314304209
 21
6.578792722625445
 31
0.0
  0
LINE
  5
1D1
330
1BD
100
AcDbEntity
  8
Symbol (ANSI)
100
AcDbLine
 10
6.659144314304209
 20
6.578792722625445
 30
0.0
 11
10.32444733652447
 21
6.578792722625445
 31
0.0
  0
MTEXT
  5
1D2
330
1BD
100
AcDbEntity
  8
Symbol (ANSI)
100
AcDbMText
 10
7.998143070533088
 20
6.76327480346227
 30
0.0
 40
0.1200000014830762
 41
0.0
 71
     7
 72
     1
  1
DESCRIPTION
  7
Text Style29
 73
     1
 44
1.0
1001
ACAD
1000
MTEXTBEGIN
1070
    73
1070
     1
1070
    44
1040
1.0
1070
    74
1070
     0
1000
MTEXTEND
  0
LINE
  5
1D3
330
1BD
100
AcDbEntity
  8
Symbol (ANSI)
100
AcDbLine
 10
4.868639031405628
 20
6.578792722625445
 30
0.0
 11
5.305738853851527
 21
6.578792722625445
 31
0.0
  0
LINE
  5
1D4
330
1BD
100
AcDbEntity
  8
Symbol (ANSI)
100
AcDbLine
 10
5.305738853851527
 20
6.578792722625445
 30
0.0
 11
5.305738853851527
 21
6.332999694783369
 31
0.0
  0
LINE
  5
1D5
330
1BD
100
AcDbEntity
  8
Symbol (ANSI)
100
AcDbLine
 10
4.868639031405628
 20
6.332999694783369
 30
0.0
 11
5.305738853851527
 21
6.332999694783369
 31
0.0
  0
MTEXT
  5
1D6
330
1BD
100
AcDbEntity
  8
Symbol (ANSI)
100
AcDbMText
 10
4.991129170185932
 20
6.395701719702323
 30
0.0
 40
0.1200000014830762
 41
0.0
 71
     7
 72
     1
  1
A1
  7
Text Style29
 73
     1
 44
2.706548929214477
1001
ACAD
1000
MTEXTBEGIN
1070
    73
1070
     1
1070
    44
1040
2.706548929214477
1070
    74
1070
     0
1000
MTEXTEND
  0
LINE
  5
1D7
330
1BD
100
AcDbEntity
  8
Symbol (ANSI)
100
AcDbLine
 10
5.305738853851527
 20
6.578792722625445
 30
0.0
 11
6.01474841499936
 21
6.578792722625445
 31
0.0
  0
LINE
  5
1D8
330
1BD
100
AcDbEntity
  8
Symbol (ANSI)
100
AcDbLine
 10
5.305738853851527
 20
6.578792722625445
 30
0.0
 11
5.305738853851527
 21
6.332999694783369
 31
0.0
  0
LINE
  5
1D9
330
1BD
100
AcDbEntity
  8
Symbol (ANSI)
100
AcDbLine
 10
6.01474841499936
 20
6.578792722625445
 30
0.0
 11
6.01474841499936
 21
6.332999694783369
 31
0.0
  0
LINE
  5
1DA
330
1BD
100
AcDbEntity
  8
Symbol (ANSI)
100
AcDbLine
 10
5.305738853851527
 20
6.332999694783369
 30
0.0
 11
6.01474841499936
 21
6.332999694783369
 31
0.0
  0
MTEXT
  5
1DB
330
1BD
100
AcDbEntity
  8
Symbol (ANSI)
100
AcDbMText
 10
5.439620866811814
 20
6.393416468504344
 30
0.0
 40
0.1200000014830762
 41
0.0
 71
     7
 72
     1
  1
-0.566
  7
Text Style29
 73
     1
 44
1.0
1001
ACAD
1000
MTEXTBEGIN
1070
    73
1070
     1
1070
    44
1040
1.0
1070
    74
1070
     0
1000
MTEXTEND
  0
LINE
  5
1DC
330
1BD
100
AcDbEntity
  8
Symbol (ANSI)
100
AcDbLine
 10
6.01474841499936
 20
6.578792722625445
 30
0.0
 11
6.659144314304209
 21
6.578792722625445
 31
0.0
  0
LINE
  5
1DD
330
1BD
100
AcDbEntity
  8
Symbol (ANSI)
100
AcDbLine
 10
6.01474841499936
 20
6.578792722625445
 30
0.0
 11
6.01474841499936
 21
6.332999694783369
 31
0.0
  0
LINE
  5
1DE
330
1BD
100
AcDbEntity
  8
Symbol (ANSI)
100
AcDbLine
 10
6.659144314304209
 20
6.578792722625445
 30
0.0
 11
6.659144314304209
 21
6.332999694783369
 31
0.0
  0
LINE
  5
1DF
330
1BD
100
AcDbEntity
  8
Symbol (ANSI)
100
AcDbLine
 10
6.01474841499936
 20
6.332999694783369
 30
0.0
 11
6.659144314304209
 21
6.332999694783369
 31
0.0
  0
MTEXT
  5
1E0
330
1BD
100
AcDbEntity
  8
Symbol (ANSI)
100
AcDbMText
 10
6.14512155769499
 20
6.393416468504344
 30
0.0
 40
0.1200000014830762
 41
0.0
 71
     7
 72
     1
  1
0.099
  7
Text Style29
 73
     1
 44
1.0
1001
ACAD
1000
MTEXTBEGIN
1070
    73
1070
     1
1070
    44
1040
1.0
1070
    74
1070
     0
1000
MTEXTEND
  0
MTEXT
  5
1E1
330
1BD
100
AcDbEntity
  8
Symbol (ANSI)
100
AcDbMText
 10
7.672086825962649
 20
6.398154895315633
 30
0.0
 40
0.1200000014830762
 41
0.0
 71
     7
 72
     1
  1
DRILL 
  7
Text Style29
 73
     1
 44
1.0
1001
ACAD
1000
MTEXTBEGIN
1070
    73
1070
     1
1070
    44
1040
1.0
1070
    74
1070
     0
1000
MTEXTEND
  0
MTEXT
  5
1E3
330
1BD
100
AcDbEntity
  8
Symbol (ANSI)
100
AcDbMText
 10
8.153470410578401
 20
6.368039064862109
 30
0.0
 40
0.1200000014830762
 41
0.0
 71
     7
 72
     1
  1
n
  7
Text Style6
 73
     1
 44
1.0
1001
ACAD
1000
MTEXTBEGIN
1070
    73
1070
     1
1070
    44
1040
1.0
1070
    74
1070
     0
1000
MTEXTEND
  0
MTEXT
  5
1E5
330
1BD
100
AcDbEntity
  8
Symbol (ANSI)
100
AcDbMText
 10
8.287372467997075
 20
6.395432042824424
 30
0.0
 40
0.1200000014830762
 41
0.0
 71
     7
 72
     1
  1
0.089 in THRU
  7
Text Style29
 73
     1
 44
1.0
1001
ACAD
1000
MTEXTBEGIN
1070
    73
1070
     1
1070
    44
1040
1.0
1070
    74
1070
     0
1000
MTEXTEND
  0
LINE
  5
1E6
330
1BD
100
AcDbEntity
  8
Symbol (ANSI)
100
AcDbLine
 10
4.868639031405628
 20
6.332999694783369
 30
0.0
 11
5.305738853851527
 21
6.332999694783369
 31
0.0
  0
LINE
  5
1E7
330
1BD
100
AcDbEntity
  8
Symbol (ANSI)
100
AcDbLine
 10
5.305738853851527
 20
6.332999694783369
 30
0.0
 11
5.305738853851527
 21
6.087206666941292
 31
0.0
  0
LINE
  5
1E8
330
1BD
100
AcDbEntity
  8
Symbol (ANSI)
100
AcDbLine
 10
4.868639031405628
 20
6.087206666941292
 30
0.0
 11
5.305738853851527
 21
6.087206666941292
 31
0.0
  0
MTEXT
  5
1E9
330
1BD
100
AcDbEntity
  8
Symbol (ANSI)
100
AcDbMText
 10
4.991129170185932
 20
6.148838999810128
 30
0.0
 40
0.1200000014830762
 41
0.0
 71
     7
 72
     1
  1
A2
  7
Text Style29
 73
     1
 44
1.0
1001
ACAD
1000
MTEXTBEGIN
1070
    73
1070
     1
1070
    44
1040
1.0
1070
    74
1070
     0
1000
MTEXTEND
  0
LINE
  5
1EA
330
1BD
100
AcDbEntity
  8
Symbol (ANSI)
100
AcDbLine
 10
5.305738853851527
 20
6.332999694783369
 30
0.0
 11
6.01474841499936
 21
6.332999694783369
 31
0.0
  0
LINE
  5
1EB
330
1BD
100
AcDbEntity
  8
Symbol (ANSI)
100
AcDbLine
 10
5.305738853851527
 20
6.332999694783369
 30
0.0
 11
5.305738853851527
 21
6.087206666941292
 31
0.0
  0
LINE
  5
1EC
330
1BD
100
AcDbEntity
  8
Symbol (ANSI)
100
AcDbLine
 10
6.01474841499936
 20
6.332999694783369
 30
0.0
 11
6.01474841499936
 21
6.087206666941292
 31
0.0
  0
LINE
  5
1ED
330
1BD
100
AcDbEntity
  8
Symbol (ANSI)
100
AcDbLine
 10
5.305738853851527
 20
6.087206666941292
 30
0.0
 11
6.01474841499936
 21
6.087206666941292
 31
0.0
  0
MTEXT
  5
1EE
330
1BD
100
AcDbEntity
  8
Symbol (ANSI)
100
AcDbMText
 10
5.439620866811814
 20
6.147380328832694
 30
0.0
 40
0.1200000014830762
 41
0.0
 71
     7
 72
     1
  1
-0.368
  7
Text Style29
 73
     1
 44
1.0
1001
ACAD
1000
MTEXTBEGIN
1070
    73
1070
     1
1070
    44
1040
1.0
1070
    74
1070
     0
1000
MTEXTEND
  0
LINE
  5
1EF
330
1BD
100
AcDbEntity
  8
Symbol (ANSI)
100
AcDbLine
 10
6.01474841499936
 20
6.332999694783369
 30
0.0
 11
6.659144314304209
 21
6.332999694783369
 31
0.0
  0
LINE
  5
1F0
330
1BD
100
AcDbEntity
  8
Symbol (ANSI)
100
AcDbLine
 10
6.01474841499936
 20
6.332999694783369
 30
0.0
 11
6.01474841499936
 21
6.087206666941292
 31
0.0
  0
LINE
  5
1F1
330
1BD
100
AcDbEntity
  8
Symbol (ANSI)
100
AcDbLine
 10
6.659144314304209
 20
6.332999694783369
 30
0.0
 11
6.659144314304209
 21
6.087206666941292
 31
0.0
  0
LINE
  5
1F2
330
1BD
100
AcDbEntity
  8
Symbol (ANSI)
100
AcDbLine
 10
6.01474841499936
 20
6.087206666941292
 30
0.0
 11
6.659144314304209
 21
6.087206666941292
 31
0.0
  0
MTEXT
  5
1F3
330
1BD
100
AcDbEntity
  8
Symbol (ANSI)
100
AcDbMText
 10
6.14512155769499
 20
6.147623440662266
 30
0.0
 40
0.1200000014830762
 41
0.0
 71
     7
 72
     1
  1
0.099
  7
Text Style29
 73
     1
 44
1.0
1001
ACAD
1000
MTEXTBEGIN
1070
    73
1070
     1
1070
    44
1040
1.0
1070
    74
1070
     0
1000
MTEXTEND
  0
LINE
  5
1F4
330
1BD
100
AcDbEntity
  8
Symbol (ANSI)
100
AcDbLine
 10
4.868639031405628
 20
6.087206666941292
 30
0.0
 11
5.305738853851527
 21
6.087206666941292
 31
0.0
  0
LINE
  5
1F5
330
1BD
100
AcDbEntity
  8
Symbol (ANSI)
100
AcDbLine
 10
5.305738853851527
 20
6.087206666941292
 30
0.0
 11
5.305738853851527
 21
5.841413639099215
 31
0.0
  0
LINE
  5
1F6
330
1BD
100
AcDbEntity
  8
Symbol (ANSI)
100
AcDbLine
 10
4.868639031405628
 20
5.841413639099215
 30
0.0
 11
5.305738853851527
 21
5.841413639099215
 31
0.0
  0
MTEXT
  5
1F7
330
1BD
100
AcDbEntity
  8
Symbol (ANSI)
100
AcDbMText
 10
5.017571855651107
 20
5.904115664018169
 30
0.0
 40
0.1200000014830762
 41
0.0
 71
     7
 72
     1
  1
B1
  7
Text Style29
 73
     1
 44
1.0
1001
ACAD
1000
MTEXTBEGIN
1070
    73
1070
     1
1070
    44
1040
1.0
1070
    74
1070
     0
1000
MTEXTEND
  0
LINE
  5
1F8
330
1BD
100
AcDbEntity
  8
Symbol (ANSI)
100
AcDbLine
 10
5.305738853851527
 20
6.087206666941292
 30
0.0
 11
6.01474841499936
 21
6.087206666941292
 31
0.0
  0
LINE
  5
1F9
330
1BD
100
AcDbEntity
  8
Symbol (ANSI)
100
AcDbLine
 10
5.305738853851527
 20
6.087206666941292
 30
0.0
 11
5.305738853851527
 21
5.841413639099215
 31
0.0
  0
LINE
  5
1FA
330
1BD
100
AcDbEntity
  8
Symbol (ANSI)
100
AcDbLine
 10
6.01474841499936
 20
6.087206666941292
 30
0.0
 11
6.01474841499936
 21
5.841413639099215
 31
0.0
  0
LINE
  5
1FB
330
1BD
100
AcDbEntity
  8
Symbol (ANSI)
100
AcDbLine
 10
5.305738853851527
 20
5.841413639099215
 30
0.0
 11
6.01474841499936
 21
5.841413639099215
 31
0.0
  0
MTEXT
  5
1FC
330
1BD
100
AcDbEntity
  8
Symbol (ANSI)
100
AcDbMText
 10
5.439620866811814
 20
5.90183041282019
 30
0.0
 40
0.1200000014830762
 41
0.0
 71
     7
 72
     1
  1
-0.715
  7
Text Style29
 73
     1
 44
1.0
1001
ACAD
1000
MTEXTBEGIN
1070
    73
1070
     1
1070
    44
1040
1.0
1070
    74
1070
     0
1000
MTEXTEND
  0
LINE
  5
1FD
330
1BD
100
AcDbEntity
  8
Symbol (ANSI)
100
AcDbLine
 10
6.01474841499936
 20
6.087206666941292
 30
0.0
 11
6.659144314304209
 21
6.087206666941292
 31
0.0
  0
LINE
  5
1FE
330
1BD
100
AcDbEntity
  8
Symbol (ANSI)
100
AcDbLine
 10
6.01474841499936
 20
6.087206666941292
 30
0.0
 11
6.01474841499936
 21
5.841413639099215
 31
0.0
  0
LINE
  5
1FF
330
1BD
100
AcDbEntity
  8
Symbol (ANSI)
100
AcDbLine
 10
6.659144314304209
 20
6.087206666941292
 30
0.0
 11
6.659144314304209
 21
5.841413639099215
 31
0.0
  0
LINE
  5
200
330
1BD
100
AcDbEntity
  8
Symbol (ANSI)
100
AcDbLine
 10
6.01474841499936
 20
5.841413639099215
 30
0.0
 11
6.659144314304209
 21
5.841413639099215
 31
0.0
  0
MTEXT
  5
201
330
1BD
100
AcDbEntity
  8
Symbol (ANSI)
100
AcDbMText
 10
6.14512155769499
 20
5.901781790454275
 30
0.0
 40
0.1200000014830762
 41
0.0
 71
     7
 72
     1
  1
0.347
  7
Text Style29
 73
     1
 44
1.0
1001
ACAD
1000
MTEXTBEGIN
1070
    73
1070
     1
1070
    44
1040
1.0
1070
    74
1070
     0
1000
MTEXTEND
  0
MTEXT
  5
202
330
1BD
100
AcDbEntity
  8
Symbol (ANSI)
100
AcDbMText
 10
6.994935563671814
 20
5.906568839631479
 30
0.0
 40
0.1200000014830762
 41
0.0
 71
     7
 72
     1
  1
DRILL 
  7
Text Style29
 73
     1
 44
1.0
1001
ACAD
1000
MTEXTBEGIN
1070
    73
1070
     1
1070
    44
1040
1.0
1070
    74
1070
     0
1000
MTEXTEND
  0
MTEXT
  5
203
330
1BD
100
AcDbEntity
  8
Symbol (ANSI)
100
AcDbMText
 10
7.476319148287568
 20
5.876453009177955
 30
0.0
 40
0.1200000014830762
 41
0.0
 71
     7
 72
     1
  1
n
  7
Text Style6
 73
     1
 44
1.0
1001
ACAD
1000
MTEXTBEGIN
1070
    73
1070
     1
1070
    44
1040
1.0
1070
    74
1070
     0
1000
MTEXTEND
  0
MTEXT
  5
204
330
1BD
100
AcDbEntity
  8
Symbol (ANSI)
100
AcDbMText
 10
7.61022120570624
 20
5.904040476603928
 30
0.0
 40
0.1200000014830762
 41
0.0
 71
     7
 72
     1
  1
0.067 in 
  7
Text Style29
 73
     1
 44
1.0
1001
ACAD
1000
MTEXTBEGIN
1070
    73
1070
     1
1070
    44
1040
1.0
1070
    74
1070
     0
1000
MTEXTEND
  0
MTEXT
  5
205
330
1BD
100
AcDbEntity
  8
Symbol (ANSI)
100
AcDbMText
 10
8.260316112821065
 20
5.898460731432454
 30
0.0
 40
0.1200000014830762
 41
0.0
 71
     7
 72
     1
  1
x
  7
Text Style6
 73
     1
 44
1.0
1001
ACAD
1000
MTEXTBEGIN
1070
    73
1070
     1
1070
    44
1040
1.0
1070
    74
1070
     0
1000
MTEXTEND
  0
MTEXT
  5
206
330
1BD
100
AcDbEntity
  8
Symbol (ANSI)
100
AcDbMText
 10
8.379861804885695
 20
5.904040476603928
 30
0.0
 40
0.1200000014830762
 41
0.0
 71
     7
 72
     1
  1
 0.41 TAP #2-56 
  7
Text Style29
 73
     1
 44
1.0
1001
ACAD
1000
MTEXTBEGIN
1070
    73
1070
     1
1070
    44
1040
1.0
1070
    74
1070
     0
1000
MTEXTEND
  0
MTEXT
  5
207
330
1BD
100
AcDbEntity
  8
Symbol (ANSI)
100
AcDbMText
 10
9.663058945016167
 20
5.898460731432454
 30
0.0
 40
0.1200000014830762
 41
0.0
 71
     7
 72
     1
  1
x
  7
Text Style6
 73
     1
 44
1.0
1001
ACAD
1000
MTEXTBEGIN
1070
    73
1070
     1
1070
    44
1040
1.0
1070
    74
1070
     0
1000
MTEXTEND
  0
MTEXT
  5
208
330
1BD
100
AcDbEntity
  8
Symbol (ANSI)
100
AcDbMText
 10
9.812785800958749
 20
5.90384598714027
 30
0.0
 40
0.1200000014830762
 41
0.0
 71
     7
 72
     1
  1
.38
  7
Text Style29
 73
     1
 44
1.0
1001
ACAD
1000
MTEXTBEGIN
1070
    73
1070
     1
1070
    44
1040
1.0
1070
    74
1070
     0
1000
MTEXTEND
  0
LINE
  5
209
330
1BD
100
AcDbEntity
  8
Symbol (ANSI)
100
AcDbLine
 10
6.659144314304209
 20
6.087206666941292
 30
0.0
 11
10.32444733652447
 21
6.087206666941292
 31
0.0
  0
LINE
  5
20A
330
1BD
100
AcDbEntity
  8
Symbol (ANSI)
100
AcDbLine
 10
6.659144314304209
 20
6.087206666941292
 30
0.0
 11
6.659144314304209
 21
5.841413639099215
 31
0.0
  0
LINE
  5
20B
330
1BD
100
AcDbEntity
  8
Symbol (ANSI)
100
AcDbLine
 10
10.32444733652447
 20
6.087206666941292
 30
0.0
 11
10.32444733652447
 21
5.841413639099215
 31
0.0
  0
LINE
  5
20C
330
1BD
100
AcDbEntity
  8
Symbol (ANSI)
100
AcDbLine
 10
4.868639031405628
 20
5.841413639099215
 30
0.0
 11
5.305738853851527
 21
5.841413639099215
 31
0.0
  0
LINE
  5
20D
330
1BD
100
AcDbEntity
  8
Symbol (ANSI)
100
AcDbLine
 10
5.305738853851527
 20
5.841413639099215
 30
0.0
 11
5.305738853851527
 21
5.595620611257139
 31
0.0
  0
LINE
  5
20E
330
1BD
100
AcDbEntity
  8
Symbol (ANSI)
100
AcDbLine
 10
4.868639031405628
 20
5.595620611257139
 30
0.0
 11
5.305738853851527
 21
5.595620611257139
 31
0.0
  0
MTEXT
  5
20F
330
1BD
100
AcDbEntity
  8
Symbol (ANSI)
100
AcDbMText
 10
5.00319146070799
 20
5.656377741539515
 30
0.0
 40
0.1200000014830762
 41
0.0
 71
     7
 72
     1
  1
C1
  7
Text Style29
 73
     1
 44
1.0
1001
ACAD
1000
MTEXTBEGIN
1070
    73
1070
     1
1070
    44
1040
1.0
1070
    74
1070
     0
1000
MTEXTEND
  0
LINE
  5
210
330
1BD
100
AcDbEntity
  8
Symbol (ANSI)
100
AcDbLine
 10
5.305738853851527
 20
5.841413639099215
 30
0.0
 11
6.01474841499936
 21
5.841413639099215
 31
0.0
  0
LINE
  5
211
330
1BD
100
AcDbEntity
  8
Symbol (ANSI)
100
AcDbLine
 10
5.305738853851527
 20
5.841413639099215
 30
0.0
 11
5.305738853851527
 21
5.595620611257139
 31
0.0
  0
LINE
  5
212
330
1BD
100
AcDbEntity
  8
Symbol (ANSI)
100
AcDbLine
 10
6.01474841499936
 20
5.841413639099215
 30
0.0
 11
6.01474841499936
 21
5.595620611257139
 31
0.0
  0
LINE
  5
213
330
1BD
100
AcDbEntity
  8
Symbol (ANSI)
100
AcDbLine
 10
5.305738853851527
 20
5.595620611257139
 30
0.0
 11
6.01474841499936
 21
5.595620611257139
 31
0.0
  0
MTEXT
  5
214
330
1BD
100
AcDbEntity
  8
Symbol (ANSI)
100
AcDbMText
 10
5.439620866811814
 20
5.656037384978113
 30
0.0
 40
0.1200000014830762
 41
0.0
 71
     7
 72
     1
  1
-0.169
  7
Text Style29
 73
     1
 44
1.0
1001
ACAD
1000
MTEXTBEGIN
1070
    73
1070
     1
1070
    44
1040
1.0
1070
    74
1070
     0
1000
MTEXTEND
  0
LINE
  5
215
330
1BD
100
AcDbEntity
  8
Symbol (ANSI)
100
AcDbLine
 10
6.01474841499936
 20
5.841413639099215
 30
0.0
 11
6.659144314304209
 21
5.841413639099215
 31
0.0
  0
LINE
  5
216
330
1BD
100
AcDbEntity
  8
Symbol (ANSI)
100
AcDbLine
 10
6.01474841499936
 20
5.841413639099215
 30
0.0
 11
6.01474841499936
 21
5.595620611257139
 31
0.0
  0
LINE
  5
217
330
1BD
100
AcDbEntity
  8
Symbol (ANSI)
100
AcDbLine
 10
6.659144314304209
 20
5.841413639099215
 30
0.0
 11
6.659144314304209
 21
5.595620611257139
 31
0.0
  0
LINE
  5
218
330
1BD
100
AcDbEntity
  8
Symbol (ANSI)
100
AcDbLine
 10
6.01474841499936
 20
5.595620611257139
 30
0.0
 11
6.659144314304209
 21
5.595620611257139
 31
0.0
  0
MTEXT
  5
219
330
1BD
100
AcDbEntity
  8
Symbol (ANSI)
100
AcDbMText
 10
6.14512155769499
 20
5.655988762612198
 30
0.0
 40
0.1200000014830762
 41
0.0
 71
     7
 72
     1
  1
0.347
  7
Text Style29
 73
     1
 44
1.875
1001
ACAD
1000
MTEXTBEGIN
1070
    73
1070
     1
1070
    44
1040
1.875
1070
    74
1070
     0
1000
MTEXTEND
  0
MTEXT
  5
21A
330
1BD
100
AcDbEntity
  8
Symbol (ANSI)
100
AcDbMText
 10
6.924141402292008
 20
5.660775811789402
 30
0.0
 40
0.1200000014830762
 41
0.0
 71
     7
 72
     1
  1
DRILL 
  7
Text Style29
 73
     1
 44
1.0
1001
ACAD
1000
MTEXTBEGIN
1070
    73
1070
     1
1070
    44
1040
1.0
1070
    74
1070
     0
1000
MTEXTEND
  0
MTEXT
  5
21B
330
1BD
100
AcDbEntity
  8
Symbol (ANSI)
100
AcDbMText
 10
7.405524986907761
 20
5.630659981335879
 30
0.0
 40
0.1200000014830762
 41
0.0
 71
     7
 72
     1
  1
n
  7
Text Style6
 73
     1
 44
1.0
1001
ACAD
1000
MTEXTBEGIN
1070
    73
1070
     1
1070
    44
1040
1.0
1070
    74
1070
     0
1000
MTEXTEND
  0
MTEXT
  5
21C
330
1BD
100
AcDbEntity
  8
Symbol (ANSI)
100
AcDbMText
 10
7.539427044326433
 20
5.658247448761851
 30
0.0
 40
0.1200000014830762
 41
0.0
 71
     7
 72
     1
  1
0.067 in 
  7
Text Style29
 73
     1
 44
1.0
1001
ACAD
1000
MTEXTBEGIN
1070
    73
1070
     1
1070
    44
1040
1.0
1070
    74
1070
     0
1000
MTEXTEND
  0
MTEXT
  5
21D
330
1BD
100
AcDbEntity
  8
Symbol (ANSI)
100
AcDbMText
 10
8.189521951441259
 20
5.652667703590377
 30
0.0
 40
0.1200000014830762
 41
0.0
 71
     7
 72
     1
  1
x
  7
Text Style6
 73
     1
 44
1.0
1001
ACAD
1000
MTEXTBEGIN
1070
    73
1070
     1
1070
    44
1040
1.0
1070
    74
1070
     0
1000
MTEXTEND
  0
MTEXT
  5
21E
330
1BD
100
AcDbEntity
  8
Symbol (ANSI)
100
AcDbMText
 10
8.309067643505889
 20
5.658247448761851
 30
0.0
 40
0.1200000014830762
 41
0.0
 71
     7
 72
     1
  1
 0.30 TAP #2-56 
  7
Text Style29
 73
     1
 44
1.0
1001
ACAD
1000
MTEXTBEGIN
1070
    73
1070
     1
1070
    44
1040
1.0
1070
    74
1070
     0
1000
MTEXTEND
  0
MTEXT
  5
21F
330
1BD
100
AcDbEntity
  8
Symbol (ANSI)
100
AcDbMText
 10
9.592264783636361
 20
5.652667703590377
 30
0.0
 40
0.1200000014830762
 41
0.0
 71
     7
 72
     1
  1
x
  7
Text Style6
 73
     1
 44
1.0
1001
ACAD
1000
MTEXTBEGIN
1070
    73
1070
     1
1070
    44
1040
1.0
1070
    74
1070
     0
1000
MTEXTEND
  0
MTEXT
  5
220
330
1BD
100
AcDbEntity
  8
Symbol (ANSI)
100
AcDbMText
 10
9.711810475700991
 20
5.658247448761851
 30
0.0
 40
0.1200000014830762
 41
0.0
 71
     7
 72
     1
  1
 0.25
  7
Text Style29
 73
     1
 44
1.0
1001
ACAD
1000
MTEXTBEGIN
1070
    73
1070
     1
1070
    44
1040
1.0
1070
    74
1070
     0
1000
MTEXTEND
  0
LINE
  5
221
330
1BD
100
AcDbEntity
  8
Symbol (ANSI)
100
AcDbLine
 10
6.659144314304209
 20
5.841413639099215
 30
0.0
 11
10.32444733652447
 21
5.841413639099215
 31
0.0
  0
LINE
  5
222
330
1BD
100
AcDbEntity
  8
Symbol (ANSI)
100
AcDbLine
 10
6.659144314304209
 20
5.841413639099215
 30
0.0
 11
6.659144314304209
 21
5.595620611257139
 31
0.0
  0
LINE
  5
223
330
1BD
100
AcDbEntity
  8
Symbol (ANSI)
100
AcDbLine
 10
10.32444733652447
 20
5.841413639099215
 30
0.0
 11
10.32444733652447
 21
5.595620611257139
 31
0.0
  0
LINE
  5
224
330
1BD
100
AcDbEntity
  8
Symbol (ANSI)
100
AcDbLine
 10
4.868639031405628
 20
5.595620611257139
 30
0.0
 11
5.305738853851527
 21
5.595620611257139
 31
0.0
  0
LINE
  5
225
330
1BD
100
AcDbEntity
  8
Symbol (ANSI)
100
AcDbLine
 10
5.305738853851527
 20
5.595620611257139
 30
0.0
 11
5.305738853851527
 21
5.349827583415062
 31
0.0
  0
LINE
  5
226
330
1BD
100
AcDbEntity
  8
Symbol (ANSI)
100
AcDbLine
 10
4.868639031405628
 20
5.349827583415062
 30
0.0
 11
5.305738853851527
 21
5.349827583415062
 31
0.0
  0
MTEXT
  5
227
330
1BD
100
AcDbEntity
  8
Symbol (ANSI)
100
AcDbMText
 10
5.010229877532931
 20
5.412529608334016
 30
0.0
 40
0.1200000014830762
 41
0.0
 71
     7
 72
     1
  1
D1
  7
Text Style29
 73
     1
 44
1.0
1001
ACAD
1000
MTEXTBEGIN
1070
    73
1070
     1
1070
    44
1040
1.0
1070
    74
1070
     0
1000
MTEXTEND
  0
LINE
  5
228
330
1BD
100
AcDbEntity
  8
Symbol (ANSI)
100
AcDbLine
 10
5.305738853851527
 20
5.595620611257139
 30
0.0
 11
6.01474841499936
 21
5.595620611257139
 31
0.0
  0
LINE
  5
229
330
1BD
100
AcDbEntity
  8
Symbol (ANSI)
100
AcDbLine
 10
5.305738853851527
 20
5.595620611257139
 30
0.0
 11
5.305738853851527
 21
5.349827583415062
 31
0.0
  0
LINE
  5
22A
330
1BD
100
AcDbEntity
  8
Symbol (ANSI)
100
AcDbLine
 10
6.01474841499936
 20
5.595620611257139
 30
0.0
 11
6.01474841499936
 21
5.349827583415062
 31
0.0
  0
LINE
  5
22B
330
1BD
100
AcDbEntity
  8
Symbol (ANSI)
100
AcDbLine
 10
5.305738853851527
 20
5.349827583415062
 30
0.0
 11
6.01474841499936
 21
5.349827583415062
 31
0.0
  0
MTEXT
  5
22C
330
1BD
100
AcDbEntity
  8
Symbol (ANSI)
100
AcDbMText
 10
5.39459655066989
 20
5.410244357136036
 30
0.0
 40
0.1200000014830762
 41
0.0
 71
     7
 72
     1
  1
-0.1691
  7
Text Style29
 73
     1
 44
1.0
1001
ACAD
1000
MTEXTBEGIN
1070
    73
1070
     1
1070
    44
1040
1.0
1070
    74
1070
     0
1000
MTEXTEND
  0
LINE
  5
22D
330
1BD
100
AcDbEntity
  8
Symbol (ANSI)
100
AcDbLine
 10
6.01474841499936
 20
5.595620611257139
 30
0.0
 11
6.659144314304209
 21
5.595620611257139
 31
0.0
  0
LINE
  5
22E
330
1BD
100
AcDbEntity
  8
Symbol (ANSI)
100
AcDbLine
 10
6.01474841499936
 20
5.595620611257139
 30
0.0
 11
6.01474841499936
 21
5.349827583415062
 31
0.0
  0
LINE
  5
22F
330
1BD
100
AcDbEntity
  8
Symbol (ANSI)
100
AcDbLine
 10
6.659144314304209
 20
5.595620611257139
 30
0.0
 11
6.659144314304209
 21
5.349827583415062
 31
0.0
  0
LINE
  5
230
330
1BD
100
AcDbEntity
  8
Symbol (ANSI)
100
AcDbLine
 10
6.01474841499936
 20
5.349827583415062
 30
0.0
 11
6.659144314304209
 21
5.349827583415062
 31
0.0
  0
MTEXT
  5
231
330
1BD
100
AcDbEntity
  8
Symbol (ANSI)
100
AcDbMText
 10
6.100097241553065
 20
5.410244357136036
 30
0.0
 40
0.1200000014830762
 41
0.0
 71
     7
 72
     1
  1
0.1000
  7
Text Style29
 73
     1
 44
1.0
1001
ACAD
1000
MTEXTBEGIN
1070
    73
1070
     1
1070
    44
1040
1.0
1070
    74
1070
     0
1000
MTEXTEND
  0
MTEXT
  5
232
330
1BD
100
AcDbEntity
  8
Symbol (ANSI)
100
AcDbMText
 10
7.59050468733981
 20
5.414982783947325
 30
0.0
 40
0.1200000014830762
 41
0.0
 71
     7
 72
     1
  1
REAM 
  7
Text Style29
 73
     1
 44
1.0
1001
ACAD
1000
MTEXTBEGIN
1070
    73
1070
     1
1070
    44
1040
1.0
1070
    74
1070
     0
1000
MTEXTEND
  0
MTEXT
  5
233
330
1BD
100
AcDbEntity
  8
Symbol (ANSI)
100
AcDbMText
 10
8.053022791757866
 20
5.384866953493802
 30
0.0
 40
0.1200000014830762
 41
0.0
 71
     7
 72
     1
  1
n
  7
Text Style6
 73
     1
 44
1.0
1001
ACAD
1000
MTEXTBEGIN
1070
    73
1070
     1
1070
    44
1040
1.0
1070
    74
1070
     0
1000
MTEXTEND
  0
MTEXT
  5
234
330
1BD
100
AcDbEntity
  8
Symbol (ANSI)
100
AcDbMText
 10
8.18692484917654
 20
5.412454420919774
 30
0.0
 40
0.1200000014830762
 41
0.0
 71
     7
 72
     1
  1
0.0945 
  7
Text Style29
 73
     1
 44
1.0
1001
ACAD
1000
MTEXTBEGIN
1070
    73
1070
     1
1070
    44
1040
1.0
1070
    74
1070
     0
1000
MTEXTEND
  0
MTEXT
  5
235
330
1BD
100
AcDbEntity
  8
Symbol (ANSI)
100
AcDbMText
 10
8.745804234020861
 20
5.406874675748301
 30
0.0
 40
0.1200000014830762
 41
0.0
 71
     7
 72
     1
  1
x
  7
Text Style6
 73
     1
 44
1.0
1001
ACAD
1000
MTEXTBEGIN
1070
    73
1070
     1
1070
    44
1040
1.0
1070
    74
1070
     0
1000
MTEXTEND
  0
MTEXT
  5
236
330
1BD
100
AcDbEntity
  8
Symbol (ANSI)
100
AcDbMText
 10
8.865349926085491
 20
5.412454420919774
 30
0.0
 40
0.1200000014830762
 41
0.0
 71
     7
 72
     1
  1
 0.25**
  7
Text Style29
 73
     1
 44
1.0
1001
ACAD
1000
MTEXTBEGIN
1070
    73
1070
     1
1070
    44
1040
1.0
1070
    74
1070
     0
1000
MTEXTEND
  0
LINE
  5
237
330
1BD
100
AcDbEntity
  8
Symbol (ANSI)
100
AcDbLine
 10
6.659144314304209
 20
5.595620611257139
 30
0.0
 11
10.32444733652447
 21
5.595620611257139
 31
0.0
  0
LINE
  5
238
330
1BD
100
AcDbEntity
  8
Symbol (ANSI)
100
AcDbLine
 10
6.659144314304209
 20
5.595620611257139
 30
0.0
 11
6.659144314304209
 21
5.349827583415062
 31
0.0
  0
LINE
  5
239
330
1BD
100
AcDbEntity
  8
Symbol (ANSI)
100
AcDbLine
 10
10.32444733652447
 20
5.595620611257139
 30
0.0
 11
10.32444733652447
 21
5.349827583415062
 31
0.0
  0
LINE
  5
23A
330
1BD
100
AcDbEntity
  8
Symbol (ANSI)
100
AcDbLine
 10
4.868639031405628
 20
5.349827583415062
 30
0.0
 11
5.305738853851527
 21
5.349827583415062
 31
0.0
  0
LINE
  5
23B
330
1BD
100
AcDbEntity
  8
Symbol (ANSI)
100
AcDbLine
 10
5.305738853851527
 20
5.349827583415062
 30
0.0
 11
5.305738853851527
 21
5.104034555572986
 31
0.0
  0
MTEXT
  5
23C
330
1BD
100
AcDbEntity
  8
Symbol (ANSI)
100
AcDbMText
 10
5.010229877532931
 20
5.165666888441821
 30
0.0
 40
0.1200000014830762
 41
0.0
 71
     7
 72
     1
  1
D2
  7
Text Style29
 73
     1
 44
1.0
1001
ACAD
1000
MTEXTBEGIN
1070
    73
1070
     1
1070
    44
1040
1.0
1070
    74
1070
     0
1000
MTEXTEND
  0
LINE
  5
23D
330
1BD
100
AcDbEntity
  8
Symbol (ANSI)
100
AcDbLine
 10
5.305738853851527
 20
5.349827583415062
 30
0.0
 11
6.01474841499936
 21
5.349827583415062
 31
0.0
  0
LINE
  5
23E
330
1BD
100
AcDbEntity
  8
Symbol (ANSI)
100
AcDbLine
 10
5.305738853851527
 20
5.349827583415062
 30
0.0
 11
5.305738853851527
 21
5.104034555572986
 31
0.0
  0
LINE
  5
23F
330
1BD
100
AcDbEntity
  8
Symbol (ANSI)
100
AcDbLine
 10
6.01474841499936
 20
5.349827583415062
 30
0.0
 11
6.01474841499936
 21
5.104034555572986
 31
0.0
  0
MTEXT
  5
240
330
1BD
100
AcDbEntity
  8
Symbol (ANSI)
100
AcDbMText
 10
5.39459655066989
 20
5.16445132929396
 30
0.0
 40
0.1200000014830762
 41
0.0
 71
     7
 72
     1
  1
-0.5751
  7
Text Style29
 73
     1
 44
1.0
1001
ACAD
1000
MTEXTBEGIN
1070
    73
1070
     1
1070
    44
1040
1.0
1070
    74
1070
     0
1000
MTEXTEND
  0
LINE
  5
241
330
1BD
100
AcDbEntity
  8
Symbol (ANSI)
100
AcDbLine
 10
6.01474841499936
 20
5.349827583415062
 30
0.0
 11
6.659144314304209
 21
5.349827583415062
 31
0.0
  0
LINE
  5
242
330
1BD
100
AcDbEntity
  8
Symbol (ANSI)
100
AcDbLine
 10
6.01474841499936
 20
5.349827583415062
 30
0.0
 11
6.01474841499936
 21
5.104034555572986
 31
0.0
  0
LINE
  5
243
330
1BD
100
AcDbEntity
  8
Symbol (ANSI)
100
AcDbLine
 10
6.659144314304209
 20
5.349827583415062
 30
0.0
 11
6.659144314304209
 21
5.104034555572986
 31
0.0
  0
MTEXT
  5
244
330
1BD
100
AcDbEntity
  8
Symbol (ANSI)
100
AcDbMText
 10
6.100097241553065
 20
5.164402706928045
 30
0.0
 40
0.1200000014830762
 41
0.0
 71
     7
 72
     1
  1
0.2500
  7
Text Style29
 73
     1
 44
1.0
1001
ACAD
1000
MTEXTBEGIN
1070
    73
1070
     1
1070
    44
1040
1.0
1070
    74
1070
     0
1000
MTEXTEND
  0
LINE
  5
245
330
1BD
100
AcDbEntity
  8
Symbol (ANSI)
100
AcDbLine
 10
4.868639031405628
 20
5.104034555572988
 30
0.0
 11
4.868639031405628
 21
7.566834496236662
 31
0.0
  0
LINE
  5
246
330
1BD
100
AcDbEntity
  8
Symbol (ANSI)
100
AcDbLine
 10
4.868639031405628
 20
7.566834496236662
 30
0.0
 11
10.32444733652446
 21
7.566834496236662
 31
0.0
  0
LINE
  5
247
330
1BD
100
AcDbEntity
  8
Symbol (ANSI)
100
AcDbLine
 10
10.32444733652446
 20
7.566834496236662
 30
0.0
 11
10.32444733652446
 21
5.104034555572988
 31
0.0
  0
LINE
  5
248
330
1BD
100
AcDbEntity
  8
Symbol (ANSI)
100
AcDbLine
 10
10.32444733652446
 20
5.104034555572988
 30
0.0
 11
4.868639031405628
 21
5.104034555572988
 31
0.0
  0
ENDBLK
  5
1BF
330
1BD
100
AcDbEntity
  8
0
100
AcDbBlockEnd
  0
BLOCK
  5
24B
330
24A
100
AcDbEntity
  8
0
100
AcDbBlockBegin
  2
Origin Indicator Symbol3
 70
     0
 10
0.0
 20
0.0
 30
0.0
  3
Origin Indicator Symbol3
  1

  0
CIRCLE
  5
24D
330
24A
100
AcDbEntity
  8
Dimension (ANSI)
100
AcDbCircle
 10
4.198726093096161
 20
3.37840567860357
 30
0.0
 40
0.0984251968503937
  0
LINE
  5
24E
102
{ACAD_REACTORS
330
250
102
}
330
24A
100
AcDbEntity
  8
Dimension (ANSI)
100
AcDbLine
 10
4.198726093096161
 20
3.476830875453964
 30
0.0
 11
4.297151289946555
 21
3.37840567860357
 31
0.0
  0
ARC
  5
24F
102
{ACAD_REACTORS
330
250
102
}
330
24A
100
AcDbEntity
  8
Dimension (ANSI)
100
AcDbCircle
 10
4.198726093096161
 20
3.37840567860357
 30
0.0
 40
0.0984251968503937
100
AcDbArc
 50
0.0
 51
90.0
  0
HATCH
  5
250
330
24A
100
AcDbEntity
  8
Dimension (ANSI)
100
AcDbHatch
 10
0.0
 20
0.0
 30
0.0
210
0.0
220
0.0
230
1.0
  2
SOLID
 70
     1
 71
     1
 91
        1
 92
        0
 93
        2
 72
     1
 10
4.198726093096161
 20
3.476830875453964
 11
4.297151289946555
 21
3.37840567860357
 72
     2
 10
4.198726093096161
 20
3.37840567860357
 40
0.0984251968503937
 50
0.0
 51
90.0
 73
     1
 97
        2
330
24E
330
24F
 75
     0
 76
     1
 98
        1
 10
0.0
 20
0.0
  0
LINE
  5
251
102
{ACAD_REACTORS
330
253
102
}
330
24A
100
AcDbEntity
  8
Dimension (ANSI)
100
AcDbLine
 10
4.198726093096161
 20
3.279980481753176
 30
0.0
 11
4.100300896245767
 21
3.37840567860357
 31
0.0
  0
ARC
  5
252
102
{ACAD_REACTORS
330
253
102
}
330
24A
100
AcDbEntity
  8
Dimension (ANSI)
100
AcDbCircle
 10
4.198726093096161
 20
3.37840567860357
 30
0.0
 40
0.0984251968503937
100
AcDbArc
 50
180.0
 51
270.0
  0
HATCH
  5
253
330
24A
100
AcDbEntity
  8
Dimension (ANSI)
100
AcDbHatch
 10
0.0
 20
0.0
 30
0.0
210
0.0
220
0.0
230
1.0
  2
SOLID
 70
     1
 71
     1
 91
        1
 92
        0
 93
        2
 72
     1
 10
4.198726093096161
 20
3.279980481753176
 11
4.100300896245768
 21
3.37840567860357
 72
     2
 10
4.198726093096161
 20
3.37840567860357
 40
0.0984251968503937
 50
180.0
 51
270.0
 73
     1
 97
        2
330
251
330
252
 75
     0
 76
     1
 98
        1
 10
0.0
 20
0.0
  0
POLYLINE
  5
254
330
24A
100
AcDbEntity
  8
Dimension (ANSI)
100
AcDb2dPolyline
 66
     1
 10
0.0
 20
0.0
 30
0.0
 70
   128
  0
VERTEX
  5
255
330
254
100
AcDbEntity
  8
Dimension (ANSI)
100
AcDbVertex
100
AcDb2dVertex
 10
4.198726143423965
 20
3.378405533437653
 30
0.0
  0
VERTEX
  5
256
330
254
100
AcDbEntity
  8
Dimension (ANSI)
100
AcDbVertex
100
AcDb2dVertex
 10
4.29715134027436
 20
3.378405533437653
 30
0.0
  0
VERTEX
  5
258
330
254
100
AcDbEntity
  8
Dimension (ANSI)
100
AcDbVertex
100
AcDb2dVertex
 10
4.198726143423965
 20
3.476830730288047
 30
0.0
  0
VERTEX
  5
259
330
254
100
AcDbEntity
  8
Dimension (ANSI)
100
AcDbVertex
100
AcDb2dVertex
 10
4.198726143423965
 20
3.378405533437653
 30
0.0
  0
SEQEND
  5
257
330
254
100
AcDbEntity
  8
Dimension (ANSI)
  0
SOLID
  5
25A
330
24A
100
AcDbEntity
  8
Dimension (ANSI)
100
AcDbTrace
 10
4.198726143423965
 20
3.378405533437653
 30
0.0
 11
4.29715134027436
 21
3.378405533437653
 31
0.0
 12
4.198726143423965
 22
3.476830730288047
 32
0.0
 13
4.198726143423965
 23
3.378405533437653
 33
0.0
  0
POLYLINE
  5
25B
330
24A
100
AcDbEntity
  8
Dimension (ANSI)
100
AcDb2dPolyline
 66
     1
 10
0.0
 20
0.0
 30
0.0
 70
   128
  0
VERTEX
  5
25C
330
25B
100
AcDbEntity
  8
Dimension (ANSI)
100
AcDbVertex
100
AcDb2dVertex
 10
4.198726143423965
 20
3.378405533437653
 30
0.0
  0
VERTEX
  5
25D
330
25B
100
AcDbEntity
  8
Dimension (ANSI)
100
AcDbVertex
100
AcDb2dVertex
 10
4.198726143423965
 20
3.476830730288047
 30
0.0
  0
VERTEX
  5
25F
330
25B
100
AcDbEntity
  8
Dimension (ANSI)
100
AcDbVertex
100
AcDb2dVertex
 10
4.198726143423965
 20
3.279980336587259
 30
0.0
  0
VERTEX
  5
260
330
25B
100
AcDbEntity
  8
Dimension (ANSI)
100
AcDbVertex
100
AcDb2dVertex
 10
4.198726143423965
 20
3.378405533437653
 30
0.0
  0
SEQEND
  5
25E
330
25B
100
AcDbEntity
  8
Dimension (ANSI)
  0
SOLID
  5
261
330
24A
100
AcDbEntity
  8
Dimension (ANSI)
100
AcDbTrace
 10
4.198726143423965
 20
3.378405533437653
 30
0.0
 11
4.198726143423965
 21
3.476830730288047
 31
0.0
 12
4.198726143423965
 22
3.279980336587259
 32
0.0
 13
4.198726143423965
 23
3.378405533437653
 33
0.0
  0
POLYLINE
  5
262
330
24A
100
AcDbEntity
  8
Dimension (ANSI)
100
AcDb2dPolyline
 66
     1
 10
0.0
 20
0.0
 30
0.0
 70
   128
  0
VERTEX
  5
263
330
262
100
AcDbEntity
  8
Dimension (ANSI)
100
AcDbVertex
100
AcDb2dVertex
 10
4.198726143423965
 20
3.378405533437653
 30
0.0
  0
VERTEX
  5
264
330
262
100
AcDbEntity
  8
Dimension (ANSI)
100
AcDbVertex
100
AcDb2dVertex
 10
4.198726143423965
 20
3.279980336587259
 30
0.0
  0
VERTEX
  5
266
330
262
100
AcDbEntity
  8
Dimension (ANSI)
100
AcDbVertex
100
AcDb2dVertex
 10
4.100300946573572
 20
3.378405533437653
 30
0.0
  0
VERTEX
  5
267
330
262
100
AcDbEntity
  8
Dimension (ANSI)
100
AcDbVertex
100
AcDb2dVertex
 10
4.198726143423965
 20
3.378405533437653
 30
0.0
  0
SEQEND
  5
265
330
262
100
AcDbEntity
  8
Dimension (ANSI)
  0
SOLID
  5
268
330
24A
100
AcDbEntity
  8
Dimension (ANSI)
100
AcDbTrace
 10
4.198726143423965
 20
3.378405533437653
 30
0.0
 11
4.198726143423965
 21
3.279980336587259
 31
0.0
 12
4.100300946573572
 22
3.378405533437653
 32
0.0
 13
4.198726143423965
 23
3.378405533437653
 33
0.0
  0
POLYLINE
  5
269
330
24A
100
AcDbEntity
  8
Dimension (ANSI)
100
AcDb2dPolyline
 66
     1
 10
0.0
 20
0.0
 30
0.0
 70
   128
  0
VERTEX
  5
26A
330
269
100
AcDbEntity
  8
Dimension (ANSI)
100
AcDbVertex
100
AcDb2dVertex
 10
4.198726143423965
 20
3.378405533437653
 30
0.0
  0
VERTEX
  5
26B
330
269
100
AcDbEntity
  8
Dimension (ANSI)
100
AcDbVertex
100
AcDb2dVertex
 10
4.100300946573572
 20
3.378405533437653
 30
0.0
  0
VERTEX
  5
26D
330
269
100
AcDbEntity
  8
Dimension (ANSI)
100
AcDbVertex
100
AcDb2dVertex
 10
4.198726143423965
 20
3.378405533437653
 30
0.0
  0
VERTEX
  5
26E
330
269
100
AcDbEntity
  8
Dimension (ANSI)
100
AcDbVertex
100
AcDb2dVertex
 10
4.198726143423965
 20
3.378405533437653
 30
0.0
  0
SEQEND
  5
26C
330
269
100
AcDbEntity
  8
Dimension (ANSI)
  0
SOLID
  5
26F
330
24A
100
AcDbEntity
  8
Dimension (ANSI)
100
AcDbTrace
 10
4.198726143423965
 20
3.378405533437653
 30
0.0
 11
4.100300946573572
 21
3.378405533437653
 31
0.0
 12
4.198726143423965
 22
3.378405533437653
 32
0.0
 13
4.198726143423965
 23
3.378405533437653
 33
0.0
  0
ENDBLK
  5
24C
330
24A
100
AcDbEntity
  8
0
100
AcDbBlockEnd
  0
BLOCK
  5
272
330
271
100
AcDbEntity
  8
0
100
AcDbBlockBegin
  2
Hole Table3
 70
     0
 10
0.0
 20
0.0
 30
0.0
  3
Hole Table3
  1

  0
MTEXT
  5
274
330
271
100
AcDbEntity
  8
Symbol (ANSI)
100
AcDbMText
 10
7.268571317528334
 20
3.253212771306005
 30
0.0
 40
0.1200000014830762
 41
0.0
 71
     7
 72
     1
  1
Hole Table
  7
Text Style29
 73
     1
 44
1.0
1001
ACAD
1000
MTEXTBEGIN
1070
    73
1070
     1
1070
    44
1040
1.0
1070
    74
1070
     0
1000
MTEXTEND
  0
LINE
  5
275
330
271
100
AcDbEntity
  8
Symbol (ANSI)
100
AcDbLine
 10
4.881094964968454
 20
3.113216511369005
 30
0.0
 11
5.286098093405595
 21
3.113216511369005
 31
0.0
  0
LINE
  5
276
330
271
100
AcDbEntity
  8
Symbol (ANSI)
100
AcDbLine
 10
5.286098093405595
 20
3.113216511369005
 30
0.0
 11
5.286098093405595
 21
2.705347169140013
 31
0.0
  0
LINE
  5
277
330
271
100
AcDbEntity
  8
Symbol (ANSI)
100
AcDbLine
 10
4.881094964968454
 20
2.705347169140013
 30
0.0
 11
5.286098093405595
 21
2.705347169140013
 31
0.0
  0
MTEXT
  5
278
330
271
100
AcDbEntity
  8
Symbol (ANSI)
100
AcDbMText
 10
4.906183656009008
 20
2.846753477688531
 30
0.0
 40
0.1200000014830762
 41
0.0
 71
     7
 72
     1
  1
HOLE
  7
Text Style29
 73
     1
 44
1.0
1001
ACAD
1000
MTEXTBEGIN
1070
    73
1070
     1
1070
    44
1040
1.0
1070
    74
1070
     0
1000
MTEXTEND
  0
LINE
  5
279
330
271
100
AcDbEntity
  8
Symbol (ANSI)
100
AcDbLine
 10
5.286098093405595
 20
3.113216511369005
 30
0.0
 11
5.954035180524202
 21
3.113216511369005
 31
0.0
  0
LINE
  5
27A
330
271
100
AcDbEntity
  8
Symbol (ANSI)
100
AcDbLine
 10
5.286098093405595
 20
3.113216511369005
 30
0.0
 11
5.286098093405595
 21
2.705347169140013
 31
0.0
  0
LINE
  5
27B
330
271
100
AcDbEntity
  8
Symbol (ANSI)
100
AcDbLine
 10
5.954035180524202
 20
3.113216511369005
 30
0.0
 11
5.954035180524202
 21
2.705347169140013
 31
0.0
  0
LINE
  5
27C
330
271
100
AcDbEntity
  8
Symbol (ANSI)
100
AcDbLine
 10
5.286098093405595
 20
2.705347169140013
 30
0.0
 11
5.954035180524202
 21
2.705347169140013
 31
0.0
  0
MTEXT
  5
27D
330
271
100
AcDbEntity
  8
Symbol (ANSI)
100
AcDbMText
 10
5.423178908228742
 20
2.849281840716082
 30
0.0
 40
0.1200000014830762
 41
0.0
 71
     7
 72
     1
  1
XDIM
  7
Text Style29
 73
     1
 44
1.0
1001
ACAD
1000
MTEXTBEGIN
1070
    73
1070
     1
1070
    44
1040
1.0
1070
    74
1070
     0
1000
MTEXTEND
  0
LINE
  5
27E
330
271
100
AcDbEntity
  8
Symbol (ANSI)
100
AcDbLine
 10
5.954035180524202
 20
3.113216511369005
 30
0.0
 11
6.687429424446959
 21
3.113216511369005
 31
0.0
  0
LINE
  5
27F
330
271
100
AcDbEntity
  8
Symbol (ANSI)
100
AcDbLine
 10
5.954035180524202
 20
3.113216511369005
 30
0.0
 11
5.954035180524202
 21
2.705347169140013
 31
0.0
  0
LINE
  5
280
330
271
100
AcDbEntity
  8
Symbol (ANSI)
100
AcDbLine
 10
6.687429424446959
 20
3.113216511369005
 30
0.0
 11
6.687429424446959
 21
2.705347169140013
 31
0.0
  0
LINE
  5
281
330
271
100
AcDbEntity
  8
Symbol (ANSI)
100
AcDbLine
 10
5.954035180524202
 20
2.705347169140013
 30
0.0
 11
6.687429424446959
 21
2.705347169140013
 31
0.0
  0
MTEXT
  5
282
330
271
100
AcDbEntity
  8
Symbol (ANSI)
100
AcDbMText
 10
6.121109142949356
 20
2.849281840716082
 30
0.0
 40
0.1200000014830762
 41
0.0
 71
     7
 72
     1
  1
YDIM
  7
Text Style29
 73
     1
 44
1.0
1001
ACAD
1000
MTEXTBEGIN
1070
    73
1070
     1
1070
    44
1040
1.0
1070
    74
1070
     0
1000
MTEXTEND
  0
LINE
  5
283
330
271
100
AcDbEntity
  8
Symbol (ANSI)
100
AcDbLine
 10
6.687429424446959
 20
3.113216511369005
 30
0.0
 11
10.38390420476074
 21
3.113216511369005
 31
0.0
  0
LINE
  5
284
330
271
100
AcDbEntity
  8
Symbol (ANSI)
100
AcDbLine
 10
6.687429424446959
 20
3.113216511369005
 30
0.0
 11
6.687429424446959
 21
2.705347169140013
 31
0.0
  0
LINE
  5
285
330
271
100
AcDbEntity
  8
Symbol (ANSI)
100
AcDbLine
 10
6.687429424446959
 20
2.705347169140013
 30
0.0
 11
10.38390420476074
 21
2.705347169140013
 31
0.0
  0
MTEXT
  5
286
330
271
100
AcDbEntity
  8
Symbol (ANSI)
100
AcDbMText
 10
8.042014059722603
 20
2.846753477688531
 30
0.0
 40
0.1200000014830762
 41
0.0
 71
     7
 72
     1
  1
DESCRIPTION
  7
Text Style29
 73
     1
 44
1.0
1001
ACAD
1000
MTEXTBEGIN
1070
    73
1070
     1
1070
    44
1040
1.0
1070
    74
1070
     0
1000
MTEXTEND
  0
LINE
  5
287
330
271
100
AcDbEntity
  8
Symbol (ANSI)
100
AcDbLine
 10
4.881094964968454
 20
2.705347169140013
 30
0.0
 11
5.286098093405595
 21
2.705347169140013
 31
0.0
  0
LINE
  5
288
330
271
100
AcDbEntity
  8
Symbol (ANSI)
100
AcDbLine
 10
5.286098093405595
 20
2.705347169140013
 30
0.0
 11
5.286098093405595
 21
2.459554141297936
 31
0.0
  0
LINE
  5
289
330
271
100
AcDbEntity
  8
Symbol (ANSI)
100
AcDbLine
 10
4.881094964968454
 20
2.459554141297936
 30
0.0
 11
5.286098093405595
 21
2.459554141297936
 31
0.0
  0
MTEXT
  5
28A
330
271
100
AcDbEntity
  8
Symbol (ANSI)
100
AcDbMText
 10
5.074520484167604
 20
2.52225616621689
 30
0.0
 40
0.1200000014830762
 41
0.0
 71
     7
 72
     1
  1
1
  7
Text Style29
 73
     1
 44
1.0
1001
ACAD
1000
MTEXTBEGIN
1070
    73
1070
     1
1070
    44
1040
1.0
1070
    74
1070
     0
1000
MTEXTEND
  0
LINE
  5
28B
330
271
100
AcDbEntity
  8
Symbol (ANSI)
100
AcDbLine
 10
5.286098093405595
 20
2.705347169140013
 30
0.0
 11
5.954035180524202
 21
2.705347169140013
 31
0.0
  0
LINE
  5
28C
330
271
100
AcDbEntity
  8
Symbol (ANSI)
100
AcDbLine
 10
5.286098093405595
 20
2.705347169140013
 30
0.0
 11
5.286098093405595
 21
2.459554141297936
 31
0.0
  0
LINE
  5
28D
330
271
100
AcDbEntity
  8
Symbol (ANSI)
100
AcDbLine
 10
5.954035180524202
 20
2.705347169140013
 30
0.0
 11
5.954035180524202
 21
2.459554141297936
 31
0.0
  0
LINE
  5
28E
330
271
100
AcDbEntity
  8
Symbol (ANSI)
100
AcDbLine
 10
5.286098093405595
 20
2.459554141297936
 30
0.0
 11
5.954035180524202
 21
2.459554141297936
 31
0.0
  0
MTEXT
  5
28F
330
271
100
AcDbEntity
  8
Symbol (ANSI)
100
AcDbMText
 10
5.354419553209345
 20
2.519727803189338
 30
0.0
 40
0.1200000014830762
 41
0.0
 71
     7
 72
     1
  1
-0.6851
  7
Text Style29
 73
     1
 44
1.0
1001
ACAD
1000
MTEXTBEGIN
1070
    73
1070
     1
1070
    44
1040
1.0
1070
    74
1070
     0
1000
MTEXTEND
  0
LINE
  5
290
330
271
100
AcDbEntity
  8
Symbol (ANSI)
100
AcDbLine
 10
5.954035180524202
 20
2.705347169140013
 30
0.0
 11
6.687429424446959
 21
2.705347169140013
 31
0.0
  0
LINE
  5
291
330
271
100
AcDbEntity
  8
Symbol (ANSI)
100
AcDbLine
 10
5.954035180524202
 20
2.705347169140013
 30
0.0
 11
5.954035180524202
 21
2.459554141297936
 31
0.0
  0
LINE
  5
292
330
271
100
AcDbEntity
  8
Symbol (ANSI)
100
AcDbLine
 10
6.687429424446959
 20
2.705347169140013
 30
0.0
 11
6.687429424446959
 21
2.459554141297936
 31
0.0
  0
LINE
  5
293
330
271
100
AcDbEntity
  8
Symbol (ANSI)
100
AcDbLine
 10
5.954035180524202
 20
2.459554141297936
 30
0.0
 11
6.687429424446959
 21
2.459554141297936
 31
0.0
  0
MTEXT
  5
294
330
271
100
AcDbEntity
  8
Symbol (ANSI)
100
AcDbMText
 10
6.055085218730028
 20
2.519727803189338
 30
0.0
 40
0.1200000014830762
 41
0.0
 71
     7
 72
     1
  1
-0.3680
  7
Text Style29
 73
     1
 44
1.0
1001
ACAD
1000
MTEXTBEGIN
1070
    73
1070
     1
1070
    44
1040
1.0
1070
    74
1070
     0
1000
MTEXTEND
  0
MTEXT
  5
295
330
271
100
AcDbEntity
  8
Symbol (ANSI)
100
AcDbMText
 10
7.634375676529324
 20
2.5247093418302
 30
0.0
 40
0.1200000014830762
 41
0.0
 71
     7
 72
     1
  1
REAM 
  7
Text Style29
 73
     1
 44
1.0
1001
ACAD
1000
MTEXTBEGIN
1070
    73
1070
     1
1070
    44
1040
1.0
1070
    74
1070
     0
1000
MTEXTEND
  0
MTEXT
  5
296
330
271
100
AcDbEntity
  8
Symbol (ANSI)
100
AcDbMText
 10
8.096893780947381
 20
2.494593511376676
 30
0.0
 40
0.1200000014830762
 41
0.0
 71
     7
 72
     1
  1
n
  7
Text Style6
 73
     1
 44
1.0
1001
ACAD
1000
MTEXTBEGIN
1070
    73
1070
     1
1070
    44
1040
1.0
1070
    74
1070
     0
1000
MTEXTEND
  0
MTEXT
  5
297
330
271
100
AcDbEntity
  8
Symbol (ANSI)
100
AcDbMText
 10
8.230795838366054
 20
2.522180978802648
 30
0.0
 40
0.1200000014830762
 41
0.0
 71
     7
 72
     1
  1
0.0945 
  7
Text Style29
 73
     1
 44
1.0
1001
ACAD
1000
MTEXTBEGIN
1070
    73
1070
     1
1070
    44
1040
1.0
1070
    74
1070
     0
1000
MTEXTEND
  0
MTEXT
  5
298
330
271
100
AcDbEntity
  8
Symbol (ANSI)
100
AcDbMText
 10
8.789675223210375
 20
2.516601233631174
 30
0.0
 40
0.1200000014830762
 41
0.0
 71
     7
 72
     1
  1
x
  7
Text Style6
 73
     1
 44
1.0
1001
ACAD
1000
MTEXTBEGIN
1070
    73
1070
     1
1070
    44
1040
1.0
1070
    74
1070
     0
1000
MTEXTEND
  0
MTEXT
  5
299
330
271
100
AcDbEntity
  8
Symbol (ANSI)
100
AcDbMText
 10
8.909220915275007
 20
2.522180978802648
 30
0.0
 40
0.1200000014830762
 41
0.0
 71
     7
 72
     1
  1
 0.25**
  7
Text Style29
 73
     1
 44
1.0
1001
ACAD
1000
MTEXTBEGIN
1070
    73
1070
     1
1070
    44
1040
1.0
1070
    74
1070
     0
1000
MTEXTEND
  0
LINE
  5
29A
330
271
100
AcDbEntity
  8
Symbol (ANSI)
100
AcDbLine
 10
4.881094964968454
 20
2.459554141297936
 30
0.0
 11
5.286098093405595
 21
2.459554141297936
 31
0.0
  0
LINE
  5
29B
330
271
100
AcDbEntity
  8
Symbol (ANSI)
100
AcDbLine
 10
5.286098093405595
 20
2.459554141297936
 30
0.0
 11
5.286098093405595
 21
2.21376111345586
 31
0.0
  0
LINE
  5
29C
330
271
100
AcDbEntity
  8
Symbol (ANSI)
100
AcDbLine
 10
4.881094964968454
 20
2.21376111345586
 30
0.0
 11
5.286098093405595
 21
2.21376111345586
 31
0.0
  0
MTEXT
  5
29D
330
271
100
AcDbEntity
  8
Symbol (ANSI)
100
AcDbMText
 10
5.055873523045557
 20
2.275393446324696
 30
0.0
 40
0.1200000014830762
 41
0.0
 71
     7
 72
     1
  1
2
  7
Text Style29
 73
     1
 44
1.0
1001
ACAD
1000
MTEXTBEGIN
1070
    73
1070
     1
1070
    44
1040
1.0
1070
    74
1070
     0
1000
MTEXTEND
  0
LINE
  5
29E
330
271
100
AcDbEntity
  8
Symbol (ANSI)
100
AcDbLine
 10
5.286098093405595
 20
2.459554141297936
 30
0.0
 11
5.954035180524202
 21
2.459554141297936
 31
0.0
  0
LINE
  5
29F
330
271
100
AcDbEntity
  8
Symbol (ANSI)
100
AcDbLine
 10
5.286098093405595
 20
2.459554141297936
 30
0.0
 11
5.286098093405595
 21
2.21376111345586
 31
0.0
  0
LINE
  5
2A0
330
271
100
AcDbEntity
  8
Symbol (ANSI)
100
AcDbLine
 10
5.954035180524202
 20
2.459554141297936
 30
0.0
 11
5.954035180524202
 21
2.21376111345586
 31
0.0
  0
LINE
  5
2A1
330
271
100
AcDbEntity
  8
Symbol (ANSI)
100
AcDbLine
 10
5.286098093405595
 20
2.21376111345586
 30
0.0
 11
5.954035180524202
 21
2.21376111345586
 31
0.0
  0
MTEXT
  5
2A2
330
271
100
AcDbEntity
  8
Symbol (ANSI)
100
AcDbMText
 10
5.354419553209345
 20
2.27412926481092
 30
0.0
 40
0.1200000014830762
 41
0.0
 71
     7
 72
     1
  1
-0.1931
  7
Text Style29
 73
     1
 44
1.0
1001
ACAD
1000
MTEXTBEGIN
1070
    73
1070
     1
1070
    44
1040
1.0
1070
    74
1070
     0
1000
MTEXTEND
  0
LINE
  5
2A3
330
271
100
AcDbEntity
  8
Symbol (ANSI)
100
AcDbLine
 10
5.954035180524202
 20
2.459554141297936
 30
0.0
 11
6.687429424446959
 21
2.459554141297936
 31
0.0
  0
LINE
  5
2A4
330
271
100
AcDbEntity
  8
Symbol (ANSI)
100
AcDbLine
 10
5.954035180524202
 20
2.459554141297936
 30
0.0
 11
5.954035180524202
 21
2.21376111345586
 31
0.0
  0
LINE
  5
2A5
330
271
100
AcDbEntity
  8
Symbol (ANSI)
100
AcDbLine
 10
6.687429424446959
 20
2.459554141297936
 30
0.0
 11
6.687429424446959
 21
2.21376111345586
 31
0.0
  0
LINE
  5
2A6
330
271
100
AcDbEntity
  8
Symbol (ANSI)
100
AcDbLine
 10
5.954035180524202
 20
2.21376111345586
 30
0.0
 11
6.687429424446959
 21
2.21376111345586
 31
0.0
  0
MTEXT
  5
2A7
330
271
100
AcDbEntity
  8
Symbol (ANSI)
100
AcDbMText
 10
6.055085218730028
 20
2.273934775347262
 30
0.0
 40
0.1200000014830762
 41
0.0
 71
     7
 72
     1
  1
-0.3680
  7
Text Style29
 73
     1
 44
1.0
1001
ACAD
1000
MTEXTBEGIN
1070
    73
1070
     1
1070
    44
1040
1.0
1070
    74
1070
     0
1000
MTEXTEND
  0
LINE
  5
2A8
330
271
100
AcDbEntity
  8
Symbol (ANSI)
100
AcDbLine
 10
4.881094964968454
 20
2.21376111345586
 30
0.0
 11
5.286098093405595
 21
2.21376111345586
 31
0.0
  0
LINE
  5
2A9
330
271
100
AcDbEntity
  8
Symbol (ANSI)
100
AcDbLine
 10
5.286098093405595
 20
2.21376111345586
 30
0.0
 11
5.286098093405595
 21
1.967968085613784
 31
0.0
  0
LINE
  5
2AA
330
271
100
AcDbEntity
  8
Symbol (ANSI)
100
AcDbLine
 10
4.881094964968454
 20
1.967968085613784
 30
0.0
 11
5.286098093405595
 21
1.967968085613784
 31
0.0
  0
MTEXT
  5
2AB
330
271
100
AcDbEntity
  8
Symbol (ANSI)
100
AcDbMText
 10
5.053951155919572
 20
2.028336236968844
 30
0.0
 40
0.1200000014830762
 41
0.0
 71
     7
 72
     1
  1
3
  7
Text Style29
 73
     1
 44
1.0
1001
ACAD
1000
MTEXTBEGIN
1070
    73
1070
     1
1070
    44
1040
1.0
1070
    74
1070
     0
1000
MTEXTEND
  0
LINE
  5
2AC
330
271
100
AcDbEntity
  8
Symbol (ANSI)
100
AcDbLine
 10
5.286098093405595
 20
2.21376111345586
 30
0.0
 11
5.954035180524202
 21
2.21376111345586
 31
0.0
  0
LINE
  5
2AD
330
271
100
AcDbEntity
  8
Symbol (ANSI)
100
AcDbLine
 10
5.286098093405595
 20
2.21376111345586
 30
0.0
 11
5.286098093405595
 21
1.967968085613784
 31
0.0
  0
LINE
  5
2AE
330
271
100
AcDbEntity
  8
Symbol (ANSI)
100
AcDbLine
 10
5.954035180524202
 20
2.21376111345586
 30
0.0
 11
5.954035180524202
 21
1.967968085613784
 31
0.0
  0
LINE
  5
2AF
330
271
100
AcDbEntity
  8
Symbol (ANSI)
100
AcDbLine
 10
5.286098093405595
 20
1.967968085613784
 30
0.0
 11
5.954035180524202
 21
1.967968085613784
 31
0.0
  0
MTEXT
  5
2B0
330
271
100
AcDbEntity
  8
Symbol (ANSI)
100
AcDbMText
 10
5.39944386935127
 20
2.028336236968844
 30
0.0
 40
0.1200000014830762
 41
0.0
 71
     7
 72
     1
  1
-0.269
  7
Text Style29
 73
     1
 44
1.0
1001
ACAD
1000
MTEXTBEGIN
1070
    73
1070
     1
1070
    44
1040
1.0
1070
    74
1070
     0
1000
MTEXTEND
  0
LINE
  5
2B1
330
271
100
AcDbEntity
  8
Symbol (ANSI)
100
AcDbLine
 10
5.954035180524202
 20
2.21376111345586
 30
0.0
 11
6.687429424446959
 21
2.21376111345586
 31
0.0
  0
LINE
  5
2B2
330
271
100
AcDbEntity
  8
Symbol (ANSI)
100
AcDbLine
 10
5.954035180524202
 20
2.21376111345586
 30
0.0
 11
5.954035180524202
 21
1.967968085613784
 31
0.0
  0
LINE
  5
2B3
330
271
100
AcDbEntity
  8
Symbol (ANSI)
100
AcDbLine
 10
6.687429424446959
 20
2.21376111345586
 30
0.0
 11
6.687429424446959
 21
1.967968085613784
 31
0.0
  0
LINE
  5
2B4
330
271
100
AcDbEntity
  8
Symbol (ANSI)
100
AcDbLine
 10
5.954035180524202
 20
1.967968085613784
 30
0.0
 11
6.687429424446959
 21
1.967968085613784
 31
0.0
  0
MTEXT
  5
2B5
330
271
100
AcDbEntity
  8
Symbol (ANSI)
100
AcDbMText
 10
6.100109534871953
 20
2.028336236968844
 30
0.0
 40
0.1200000014830762
 41
0.0
 71
     7
 72
     1
  1
-0.290
  7
Text Style29
 73
     1
 44
1.0
1001
ACAD
1000
MTEXTBEGIN
1070
    73
1070
     1
1070
    44
1040
1.0
1070
    74
1070
     0
1000
MTEXTEND
  0
MTEXT
  5
2B6
330
271
100
AcDbEntity
  8
Symbol (ANSI)
100
AcDbMText
 10
7.023830862395117
 20
2.033123286146047
 30
0.0
 40
0.1200000014830762
 41
0.0
 71
     7
 72
     1
  1
DRILL 
  7
Text Style29
 73
     1
 44
1.0
1001
ACAD
1000
MTEXTBEGIN
1070
    73
1070
     1
1070
    44
1040
1.0
1070
    74
1070
     0
1000
MTEXTEND
  0
MTEXT
  5
2B7
330
271
100
AcDbEntity
  8
Symbol (ANSI)
100
AcDbMText
 10
7.505214447010869
 20
2.003007455692524
 30
0.0
 40
0.1200000014830762
 41
0.0
 71
     7
 72
     1
  1
n
  7
Text Style6
 73
     1
 44
1.0
1001
ACAD
1000
MTEXTBEGIN
1070
    73
1070
     1
1070
    44
1040
1.0
1070
    74
1070
     0
1000
MTEXTEND
  0
MTEXT
  5
2B8
330
271
100
AcDbEntity
  8
Symbol (ANSI)
100
AcDbMText
 10
7.639116504429543
 20
2.030594923118496
 30
0.0
 40
0.1200000014830762
 41
0.0
 71
     7
 72
     1
  1
0.067 in 
  7
Text Style29
 73
     1
 44
1.0
1001
ACAD
1000
MTEXTBEGIN
1070
    73
1070
     1
1070
    44
1040
1.0
1070
    74
1070
     0
1000
MTEXTEND
  0
MTEXT
  5
2B9
330
271
100
AcDbEntity
  8
Symbol (ANSI)
100
AcDbMText
 10
8.289211411544368
 20
2.025015177947022
 30
0.0
 40
0.1200000014830762
 41
0.0
 71
     7
 72
     1
  1
x
  7
Text Style6
 73
     1
 44
1.0
1001
ACAD
1000
MTEXTBEGIN
1070
    73
1070
     1
1070
    44
1040
1.0
1070
    74
1070
     0
1000
MTEXTEND
  0
MTEXT
  5
2BA
330
271
100
AcDbEntity
  8
Symbol (ANSI)
100
AcDbMText
 10
8.408757103608998
 20
2.014938521294044
 30
0.0
 40
0.1200000014830762
 41
0.0
 71
     7
 72
     1
  1
 0.40 TAP @2-56 
  7
Text Style29
 73
     1
 44
1.0
1001
ACAD
1000
MTEXTBEGIN
1070
    73
1070
     1
1070
    44
1040
1.0
1070
    74
1070
     0
1000
MTEXTEND
  0
MTEXT
  5
2BB
330
271
100
AcDbEntity
  8
Symbol (ANSI)
100
AcDbMText
 10
9.721905624671894
 20
2.025015177947022
 30
0.0
 40
0.1200000014830762
 41
0.0
 71
     7
 72
     1
  1
x
  7
Text Style6
 73
     1
 44
1.0
1001
ACAD
1000
MTEXTBEGIN
1070
    73
1070
     1
1070
    44
1040
1.0
1070
    74
1070
     0
1000
MTEXTEND
  0
MTEXT
  5
2BC
330
271
100
AcDbEntity
  8
Symbol (ANSI)
100
AcDbMText
 10
9.871632480614477
 20
2.030400433654838
 30
0.0
 40
0.1200000014830762
 41
0.0
 71
     7
 72
     1
  1
.38
  7
Text Style29
 73
     1
 44
1.0
1001
ACAD
1000
MTEXTBEGIN
1070
    73
1070
     1
1070
    44
1040
1.0
1070
    74
1070
     0
1000
MTEXTEND
  0
LINE
  5
2BD
330
271
100
AcDbEntity
  8
Symbol (ANSI)
100
AcDbLine
 10
6.687429424446959
 20
2.21376111345586
 30
0.0
 11
10.38390420476074
 21
2.21376111345586
 31
0.0
  0
LINE
  5
2BE
330
271
100
AcDbEntity
  8
Symbol (ANSI)
100
AcDbLine
 10
6.687429424446959
 20
2.21376111345586
 30
0.0
 11
6.687429424446959
 21
1.967968085613784
 31
0.0
  0
LINE
  5
2BF
330
271
100
AcDbEntity
  8
Symbol (ANSI)
100
AcDbLine
 10
10.38390420476074
 20
2.21376111345586
 30
0.0
 11
10.38390420476074
 21
1.967968085613784
 31
0.0
  0
LINE
  5
2C0
330
271
100
AcDbEntity
  8
Symbol (ANSI)
100
AcDbLine
 10
4.881094964968454
 20
1.967968085613784
 30
0.0
 11
5.286098093405595
 21
1.967968085613784
 31
0.0
  0
LINE
  5
2C1
330
271
100
AcDbEntity
  8
Symbol (ANSI)
100
AcDbLine
 10
5.286098093405595
 20
1.967968085613784
 30
0.0
 11
5.286098093405595
 21
1.722175057771707
 31
0.0
  0
LINE
  5
2C2
330
271
100
AcDbEntity
  8
Symbol (ANSI)
100
AcDbLine
 10
4.881094964968454
 20
1.722175057771707
 30
0.0
 11
5.286098093405595
 21
1.722175057771707
 31
0.0
  0
MTEXT
  5
2C3
330
271
100
AcDbEntity
  8
Symbol (ANSI)
100
AcDbMText
 10
5.044916030427446
 20
1.785071572154319
 30
0.0
 40
0.1200000014830762
 41
0.0
 71
     7
 72
     1
  1
4
  7
Text Style29
 73
     1
 44
1.0
1001
ACAD
1000
MTEXTBEGIN
1070
    73
1070
     1
1070
    44
1040
1.0
1070
    74
1070
     0
1000
MTEXTEND
  0
LINE
  5
2C4
330
271
100
AcDbEntity
  8
Symbol (ANSI)
100
AcDbLine
 10
5.286098093405595
 20
1.967968085613784
 30
0.0
 11
5.954035180524202
 21
1.967968085613784
 31
0.0
  0
LINE
  5
2C5
330
271
100
AcDbEntity
  8
Symbol (ANSI)
100
AcDbLine
 10
5.286098093405595
 20
1.967968085613784
 30
0.0
 11
5.286098093405595
 21
1.722175057771707
 31
0.0
  0
LINE
  5
2C6
330
271
100
AcDbEntity
  8
Symbol (ANSI)
100
AcDbLine
 10
5.954035180524202
 20
1.967968085613784
 30
0.0
 11
5.954035180524202
 21
1.722175057771707
 31
0.0
  0
LINE
  5
2C7
330
271
100
AcDbEntity
  8
Symbol (ANSI)
100
AcDbLine
 10
5.286098093405595
 20
1.722175057771707
 30
0.0
 11
5.954035180524202
 21
1.722175057771707
 31
0.0
  0
MTEXT
  5
2C8
330
271
100
AcDbEntity
  8
Symbol (ANSI)
100
AcDbMText
 10
5.39944386935127
 20
1.782591831492682
 30
0.0
 40
0.1200000014830762
 41
0.0
 71
     7
 72
     1
  1
-0.715
  7
Text Style29
 73
     1
 44
1.0
1001
ACAD
1000
MTEXTBEGIN
1070
    73
1070
     1
1070
    44
1040
1.0
1070
    74
1070
     0
1000
MTEXTEND
  0
LINE
  5
2C9
330
271
100
AcDbEntity
  8
Symbol (ANSI)
100
AcDbLine
 10
5.954035180524202
 20
1.967968085613784
 30
0.0
 11
6.687429424446959
 21
1.967968085613784
 31
0.0
  0
LINE
  5
2CA
330
271
100
AcDbEntity
  8
Symbol (ANSI)
100
AcDbLine
 10
5.954035180524202
 20
1.967968085613784
 30
0.0
 11
5.954035180524202
 21
1.722175057771707
 31
0.0
  0
LINE
  5
2CB
330
271
100
AcDbEntity
  8
Symbol (ANSI)
100
AcDbLine
 10
6.687429424446959
 20
1.967968085613784
 30
0.0
 11
6.687429424446959
 21
1.722175057771707
 31
0.0
  0
LINE
  5
2CC
330
271
100
AcDbEntity
  8
Symbol (ANSI)
100
AcDbLine
 10
5.954035180524202
 20
1.722175057771707
 30
0.0
 11
6.687429424446959
 21
1.722175057771707
 31
0.0
  0
MTEXT
  5
2CD
330
271
100
AcDbEntity
  8
Symbol (ANSI)
100
AcDbMText
 10
6.100109534871953
 20
1.782591831492682
 30
0.0
 40
0.1200000014830762
 41
0.0
 71
     7
 72
     1
  1
-0.099
  7
Text Style29
 73
     1
 44
1.0
1001
ACAD
1000
MTEXTBEGIN
1070
    73
1070
     1
1070
    44
1040
1.0
1070
    74
1070
     0
1000
MTEXTEND
  0
MTEXT
  5
2CE
330
271
100
AcDbEntity
  8
Symbol (ANSI)
100
AcDbMText
 10
7.03880655286133
 20
1.787330258303971
 30
0.0
 40
0.1200000014830762
 41
0.0
 71
     7
 72
     1
  1
DRILL 
  7
Text Style29
 73
     1
 44
1.0
1001
ACAD
1000
MTEXTBEGIN
1070
    73
1070
     1
1070
    44
1040
1.0
1070
    74
1070
     0
1000
MTEXTEND
  0
MTEXT
  5
2CF
330
271
100
AcDbEntity
  8
Symbol (ANSI)
100
AcDbMText
 10
7.520190137477082
 20
1.757214427850448
 30
0.0
 40
0.1200000014830762
 41
0.0
 71
     7
 72
     1
  1
n
  7
Text Style6
 73
     1
 44
1.0
1001
ACAD
1000
MTEXTBEGIN
1070
    73
1070
     1
1070
    44
1040
1.0
1070
    74
1070
     0
1000
MTEXTEND
  0
MTEXT
  5
2D0
330
271
100
AcDbEntity
  8
Symbol (ANSI)
100
AcDbMText
 10
7.654092194895755
 20
1.78480189527642
 30
0.0
 40
0.1200000014830762
 41
0.0
 71
     7
 72
     1
  1
0.067 in 
  7
Text Style29
 73
     1
 44
1.0
1001
ACAD
1000
MTEXTBEGIN
1070
    73
1070
     1
1070
    44
1040
1.0
1070
    74
1070
     0
1000
MTEXTEND
  0
MTEXT
  5
2D1
330
271
100
AcDbEntity
  8
Symbol (ANSI)
100
AcDbMText
 10
8.30418710201058
 20
1.779222150104946
 30
0.0
 40
0.1200000014830762
 41
0.0
 71
     7
 72
     1
  1
x
  7
Text Style6
 73
     1
 44
1.0
1001
ACAD
1000
MTEXTBEGIN
1070
    73
1070
     1
1070
    44
1040
1.0
1070
    74
1070
     0
1000
MTEXTEND
  0
MTEXT
  5
2D2
330
271
100
AcDbEntity
  8
Symbol (ANSI)
100
AcDbMText
 10
8.42373279407521
 20
1.784607405812762
 30
0.0
 40
0.1200000014830762
 41
0.0
 71
     7
 72
     1
  1
 0.28 TAP #2-56 
  7
Text Style29
 73
     1
 44
1.0
1001
ACAD
1000
MTEXTBEGIN
1070
    73
1070
     1
1070
    44
1040
1.0
1070
    74
1070
     0
1000
MTEXTEND
  0
MTEXT
  5
2D3
330
271
100
AcDbEntity
  8
Symbol (ANSI)
100
AcDbMText
 10
9.706929934205682
 20
1.779222150104946
 30
0.0
 40
0.1200000014830762
 41
0.0
 71
     7
 72
     1
  1
x
  7
Text Style6
 73
     1
 44
1.0
1001
ACAD
1000
MTEXTBEGIN
1070
    73
1070
     1
1070
    44
1040
1.0
1070
    74
1070
     0
1000
MTEXTEND
  0
MTEXT
  5
2D4
330
271
100
AcDbEntity
  8
Symbol (ANSI)
100
AcDbMText
 10
9.856656790148266
 20
1.78480189527642
 30
0.0
 40
0.1200000014830762
 41
0.0
 71
     7
 72
     1
  1
.25
  7
Text Style29
 73
     1
 44
1.0
1001
ACAD
1000
MTEXTBEGIN
1070
    73
1070
     1
1070
    44
1040
1.0
1070
    74
1070
     0
1000
MTEXTEND
  0
LINE
  5
2D5
330
271
100
AcDbEntity
  8
Symbol (ANSI)
100
AcDbLine
 10
6.687429424446959
 20
1.967968085613784
 30
0.0
 11
10.38390420476074
 21
1.967968085613784
 31
0.0
  0
LINE
  5
2D6
330
271
100
AcDbEntity
  8
Symbol (ANSI)
100
AcDbLine
 10
6.687429424446959
 20
1.967968085613784
 30
0.0
 11
6.687429424446959
 21
1.722175057771707
 31
0.0
  0
LINE
  5
2D7
330
271
100
AcDbEntity
  8
Symbol (ANSI)
100
AcDbLine
 10
10.38390420476074
 20
1.967968085613784
 30
0.0
 11
10.38390420476074
 21
1.722175057771707
 31
0.0
  0
LINE
  5
2D8
330
271
100
AcDbEntity
  8
Symbol (ANSI)
100
AcDbLine
 10
4.881094964968454
 20
1.722175057771707
 30
0.0
 11
5.286098093405595
 21
1.722175057771707
 31
0.0
  0
LINE
  5
2D9
330
271
100
AcDbEntity
  8
Symbol (ANSI)
100
AcDbLine
 10
5.286098093405595
 20
1.722175057771707
 30
0.0
 11
5.286098093405595
 21
1.476382029929631
 31
0.0
  0
LINE
  5
2DA
330
271
100
AcDbEntity
  8
Symbol (ANSI)
100
AcDbLine
 10
4.881094964968454
 20
1.476382029929631
 30
0.0
 11
5.286098093405595
 21
1.476382029929631
 31
0.0
  0
MTEXT
  5
2DB
330
271
100
AcDbEntity
  8
Symbol (ANSI)
100
AcDbMText
 10
5.058372600309336
 20
1.538014362798467
 30
0.0
 40
0.1200000014830762
 41
0.0
 71
     7
 72
     1
  1
5
  7
Text Style29
 73
     1
 44
1.0
1001
ACAD
1000
MTEXTBEGIN
1070
    73
1070
     1
1070
    44
1040
1.0
1070
    74
1070
     0
1000
MTEXTEND
  0
LINE
  5
2DC
330
271
100
AcDbEntity
  8
Symbol (ANSI)
100
AcDbLine
 10
5.286098093405595
 20
1.722175057771707
 30
0.0
 11
5.954035180524202
 21
1.722175057771707
 31
0.0
  0
LINE
  5
2DD
330
271
100
AcDbEntity
  8
Symbol (ANSI)
100
AcDbLine
 10
5.286098093405595
 20
1.722175057771707
 30
0.0
 11
5.286098093405595
 21
1.476382029929631
 31
0.0
  0
LINE
  5
2DE
330
271
100
AcDbEntity
  8
Symbol (ANSI)
100
AcDbLine
 10
5.954035180524202
 20
1.722175057771707
 30
0.0
 11
5.954035180524202
 21
1.476382029929631
 31
0.0
  0
LINE
  5
2DF
330
271
100
AcDbEntity
  8
Symbol (ANSI)
100
AcDbLine
 10
5.286098093405595
 20
1.476382029929631
 30
0.0
 11
5.954035180524202
 21
1.476382029929631
 31
0.0
  0
MTEXT
  5
2E0
330
271
100
AcDbEntity
  8
Symbol (ANSI)
100
AcDbMText
 10
5.39944386935127
 20
1.536798803650605
 30
0.0
 40
0.1200000014830762
 41
0.0
 71
     7
 72
     1
  1
-0.467
  7
Text Style29
 73
     1
 44
1.0
1001
ACAD
1000
MTEXTBEGIN
1070
    73
1070
     1
1070
    44
1040
1.0
1070
    74
1070
     0
1000
MTEXTEND
  0
LINE
  5
2E1
330
271
100
AcDbEntity
  8
Symbol (ANSI)
100
AcDbLine
 10
5.954035180524202
 20
1.722175057771707
 30
0.0
 11
6.687429424446959
 21
1.722175057771707
 31
0.0
  0
LINE
  5
2E2
330
271
100
AcDbEntity
  8
Symbol (ANSI)
100
AcDbLine
 10
5.954035180524202
 20
1.722175057771707
 30
0.0
 11
5.954035180524202
 21
1.476382029929631
 31
0.0
  0
LINE
  5
2E3
330
271
100
AcDbEntity
  8
Symbol (ANSI)
100
AcDbLine
 10
6.687429424446959
 20
1.722175057771707
 30
0.0
 11
6.687429424446959
 21
1.476382029929631
 31
0.0
  0
LINE
  5
2E4
330
271
100
AcDbEntity
  8
Symbol (ANSI)
100
AcDbLine
 10
5.954035180524202
 20
1.476382029929631
 30
0.0
 11
6.687429424446959
 21
1.476382029929631
 31
0.0
  0
MTEXT
  5
2E5
330
271
100
AcDbEntity
  8
Symbol (ANSI)
100
AcDbMText
 10
6.100109534871953
 20
1.536798803650605
 30
0.0
 40
0.1200000014830762
 41
0.0
 71
     7
 72
     1
  1
-0.099
  7
Text Style29
 73
     1
 44
1.0
1001
ACAD
1000
MTEXTBEGIN
1070
    73
1070
     1
1070
    44
1040
1.0
1070
    74
1070
     0
1000
MTEXTEND
  0
MTEXT
  5
2E6
330
271
100
AcDbEntity
  8
Symbol (ANSI)
100
AcDbMText
 10
7.715957815152164
 20
1.541537230461894
 30
0.0
 40
0.1200000014830762
 41
0.0
 71
     7
 72
     1
  1
DRILL 
  7
Text Style29
 73
     1
 44
1.0
1001
ACAD
1000
MTEXTBEGIN
1070
    73
1070
     1
1070
    44
1040
1.0
1070
    74
1070
     0
1000
MTEXTEND
  0
MTEXT
  5
2E7
330
271
100
AcDbEntity
  8
Symbol (ANSI)
100
AcDbMText
 10
8.197341399767916
 20
1.511421400008371
 30
0.0
 40
0.1200000014830762
 41
0.0
 71
     7
 72
     1
  1
n
  7
Text Style6
 73
     1
 44
2.257227420806884
1001
ACAD
1000
MTEXTBEGIN
1070
    73
1070
     1
1070
    44
1040
2.257227420806884
1070
    74
1070
     0
1000
MTEXTEND
  0
MTEXT
  5
2E8
330
271
100
AcDbEntity
  8
Symbol (ANSI)
100
AcDbMText
 10
8.331243457186589
 20
1.538814377970685
 30
0.0
 40
0.1200000014830762
 41
0.0
 71
     7
 72
     1
  1
0.089 in THRU
  7
Text Style29
 73
     1
 44
1.0
1001
ACAD
1000
MTEXTBEGIN
1070
    73
1070
     1
1070
    44
1040
1.0
1070
    74
1070
     0
1000
MTEXTEND
  0
LINE
  5
2E9
330
271
100
AcDbEntity
  8
Symbol (ANSI)
100
AcDbLine
 10
6.687429424446959
 20
1.722175057771707
 30
0.0
 11
10.38390420476074
 21
1.722175057771707
 31
0.0
  0
LINE
  5
2EA
330
271
100
AcDbEntity
  8
Symbol (ANSI)
100
AcDbLine
 10
6.687429424446959
 20
1.722175057771707
 30
0.0
 11
6.687429424446959
 21
1.476382029929631
 31
0.0
  0
LINE
  5
2EB
330
271
100
AcDbEntity
  8
Symbol (ANSI)
100
AcDbLine
 10
10.38390420476074
 20
1.722175057771707
 30
0.0
 11
10.38390420476074
 21
1.476382029929631
 31
0.0
  0
LINE
  5
2EC
330
271
100
AcDbEntity
  8
Symbol (ANSI)
100
AcDbLine
 10
4.881094964968454
 20
1.476382029929631
 30
0.0
 11
5.286098093405595
 21
1.476382029929631
 31
0.0
  0
LINE
  5
2ED
330
271
100
AcDbEntity
  8
Symbol (ANSI)
100
AcDbLine
 10
5.286098093405595
 20
1.476382029929631
 30
0.0
 11
5.286098093405595
 21
1.230589002087555
 31
0.0
  0
MTEXT
  5
2EE
330
271
100
AcDbEntity
  8
Symbol (ANSI)
100
AcDbMText
 10
5.052028788793588
 20
1.291103020540358
 30
0.0
 40
0.1200000014830762
 41
0.0
 71
     7
 72
     1
  1
6
  7
Text Style29
 73
     1
 44
1.0
1001
ACAD
1000
MTEXTBEGIN
1070
    73
1070
     1
1070
    44
1040
1.0
1070
    74
1070
     0
1000
MTEXTEND
  0
LINE
  5
2EF
330
271
100
AcDbEntity
  8
Symbol (ANSI)
100
AcDbLine
 10
5.286098093405595
 20
1.476382029929631
 30
0.0
 11
5.954035180524202
 21
1.476382029929631
 31
0.0
  0
LINE
  5
2F0
330
271
100
AcDbEntity
  8
Symbol (ANSI)
100
AcDbLine
 10
5.286098093405595
 20
1.476382029929631
 30
0.0
 11
5.286098093405595
 21
1.230589002087555
 31
0.0
  0
LINE
  5
2F1
330
271
100
AcDbEntity
  8
Symbol (ANSI)
100
AcDbLine
 10
5.954035180524202
 20
1.476382029929631
 30
0.0
 11
5.954035180524202
 21
1.230589002087555
 31
0.0
  0
MTEXT
  5
2F2
330
271
100
AcDbEntity
  8
Symbol (ANSI)
100
AcDbMText
 10
5.39944386935127
 20
1.290957153442615
 30
0.0
 40
0.1200000014830762
 41
0.0
 71
     7
 72
     1
  1
-0.269
  7
Text Style29
 73
     1
 44
1.0
1001
ACAD
1000
MTEXTBEGIN
1070
    73
1070
     1
1070
    44
1040
1.0
1070
    74
1070
     0
1000
MTEXTEND
  0
LINE
  5
2F3
330
271
100
AcDbEntity
  8
Symbol (ANSI)
100
AcDbLine
 10
5.954035180524202
 20
1.476382029929631
 30
0.0
 11
6.687429424446959
 21
1.476382029929631
 31
0.0
  0
LINE
  5
2F4
330
271
100
AcDbEntity
  8
Symbol (ANSI)
100
AcDbLine
 10
5.954035180524202
 20
1.476382029929631
 30
0.0
 11
5.954035180524202
 21
1.230589002087555
 31
0.0
  0
LINE
  5
2F5
330
271
100
AcDbEntity
  8
Symbol (ANSI)
100
AcDbLine
 10
6.687429424446959
 20
1.476382029929631
 30
0.0
 11
6.687429424446959
 21
1.230589002087555
 31
0.0
  0
MTEXT
  5
2F6
330
271
100
AcDbEntity
  8
Symbol (ANSI)
100
AcDbMText
 10
6.100109534871953
 20
1.291005775808529
 30
0.0
 40
0.1200000014830762
 41
0.0
 71
     7
 72
     1
  1
-0.099
  7
Text Style29
 73
     1
 44
1.0
1001
ACAD
1000
MTEXTBEGIN
1070
    73
1070
     1
1070
    44
1040
1.0
1070
    74
1070
     0
1000
MTEXTEND
  0
LINE
  5
2F7
330
271
100
AcDbEntity
  8
Symbol (ANSI)
100
AcDbLine
 10
4.881094964968454
 20
1.230589002087555
 30
0.0
 11
4.881094964968454
 21
3.521085853597998
 31
0.0
  0
LINE
  5
2F8
330
271
100
AcDbEntity
  8
Symbol (ANSI)
100
AcDbLine
 10
4.881094964968454
 20
3.521085853597998
 30
0.0
 11
10.38390420476074
 21
3.521085853597998
 31
0.0
  0
LINE
  5
2F9
330
271
100
AcDbEntity
  8
Symbol (ANSI)
100
AcDbLine
 10
10.38390420476074
 20
3.521085853597998
 30
0.0
 11
10.38390420476074
 21
1.230589002087555
 31
0.0
  0
LINE
  5
2FA
330
271
100
AcDbEntity
  8
Symbol (ANSI)
100
AcDbLine
 10
10.38390420476074
 20
1.230589002087555
 30
0.0
 11
4.881094964968454
 21
1.230589002087555
 31
0.0
  0
ENDBLK
  5
273
330
271
100
AcDbEntity
  8
0
100
AcDbBlockEnd
  0
BLOCK
  5
2FE
330
2FD
100
AcDbEntity
  8
0
100
AcDbBlockBegin
  2
Leader Text3
 70
     0
 10
0.0
 20
0.0
 30
0.0
  3
Leader Text3
  1

  0
LINE
  5
300
330
2FD
100
AcDbEntity
  8
Symbol (ANSI)
100
AcDbLine
 10
2.800820528162592
 20
5.657333634418438
 30
0.0
 11
2.780175221716686
 21
5.753569234363538
 31
0.0
  0
POLYLINE
  5
301
330
2FD
100
AcDbEntity
  8
Symbol (ANSI)
100
AcDb2dPolyline
 66
     1
 10
0.0
 20
0.0
 30
0.0
 70
   128
  0
VERTEX
  5
302
330
301
100
AcDbEntity
  8
Symbol (ANSI)
100
AcDbVertex
100
AcDb2dVertex
 10
2.820067706070546
 20
5.661462798831969
 30
0.0
  0
VERTEX
  5
303
330
301
100
AcDbEntity
  8
Symbol (ANSI)
100
AcDbVertex
100
AcDb2dVertex
 10
2.780175209045409
 20
5.753569340142677
 30
0.0
  0
VERTEX
  5
305
330
301
100
AcDbEntity
  8
Symbol (ANSI)
100
AcDbVertex
100
AcDb2dVertex
 10
2.7815734307597
 20
5.653204504899152
 30
0.0
  0
VERTEX
  5
306
330
301
100
AcDbEntity
  8
Symbol (ANSI)
100
AcDbVertex
100
AcDb2dVertex
 10
2.820067706070546
 20
5.661462798831969
 30
0.0
  0
SEQEND
  5
304
330
301
100
AcDbEntity
  8
Symbol (ANSI)
  0
SOLID
  5
307
330
2FD
100
AcDbEntity
  8
Symbol (ANSI)
100
AcDbTrace
 10
2.820067706070546
 20
5.661462798831969
 30
0.0
 11
2.780175209045409
 21
5.753569340142677
 31
0.0
 12
2.7815734307597
 22
5.653204504899152
 32
0.0
 13
2.820067706070546
 23
5.661462798831969
 33
0.0
  0
LINE
  5
308
330
2FD
100
AcDbEntity
  8
Symbol (ANSI)
100
AcDbLine
 10
2.820067648151612
 20
5.661462695707618
 30
0.0
 11
2.780175221716686
 21
5.753569234363538
 31
0.0
  0
LINE
  5
309
330
2FD
100
AcDbEntity
  8
Symbol (ANSI)
100
AcDbLine
 10
2.780175221716686
 20
5.753569234363538
 30
0.0
 11
2.781573408173572
 21
5.653204573129256
 31
0.0
  0
LINE
  5
30A
330
2FD
100
AcDbEntity
  8
Symbol (ANSI)
100
AcDbLine
 10
2.781573408173572
 20
5.653204573129256
 30
0.0
 11
2.820067648151612
 21
5.661462695707618
 31
0.0
  0
LINE
  5
30B
330
2FD
100
AcDbEntity
  8
Symbol (ANSI)
100
AcDbLine
 10
2.800820528162592
 20
5.657333634418438
 30
0.0
 11
2.876033988201065
 21
5.3067351838837
 31
0.0
  0
LINE
  5
30C
330
2FD
100
AcDbEntity
  8
Symbol (ANSI)
100
AcDbLine
 10
2.876033988201065
 20
5.3067351838837
 30
0.0
 11
2.974459185051459
 21
5.3067351838837
 31
0.0
  0
MTEXT
  5
30D
330
2FD
100
AcDbEntity
  8
Symbol (ANSI)
100
AcDbMText
 10
2.972921291350671
 20
5.245471002831497
 30
0.0
 40
0.1200000014830762
 41
0.0
 71
     7
 72
     1
  1
A2
  7
Text Style29
 73
     1
 44
1.0
1001
ACAD
1000
MTEXTBEGIN
1070
    73
1070
     1
1070
    44
1040
1.0
1070
    74
1070
     0
1000
MTEXTEND
  0
ENDBLK
  5
2FF
330
2FD
100
AcDbEntity
  8
0
100
AcDbBlockEnd
  0
BLOCK
  5
310
330
30F
100
AcDbEntity
  8
0
100
AcDbBlockBegin
  2
Leader Text4
 70
     0
 10
0.0
 20
0.0
 30
0.0
  3
Leader Text4
  1

  0
LINE
  5
312
330
30F
100
AcDbEntity
  8
Symbol (ANSI)
100
AcDbLine
 10
2.000387249976962
 20
5.655498144158991
 30
0.0
 11
1.982546627455924
 21
5.752292935150556
 31
0.0
  0
POLYLINE
  5
313
330
30F
100
AcDbEntity
  8
Symbol (ANSI)
100
AcDb2dPolyline
 66
     1
 10
0.0
 20
0.0
 30
0.0
 70
   128
  0
VERTEX
  5
314
330
313
100
AcDbEntity
  8
Symbol (ANSI)
100
AcDbVertex
100
AcDb2dVertex
 10
2.019746284785232
 20
5.659066222784087
 30
0.0
  0
VERTEX
  5
315
330
313
100
AcDbEntity
  8
Symbol (ANSI)
100
AcDbVertex
100
AcDb2dVertex
 10
1.982546603585791
 20
5.752292768223078
 30
0.0
  0
VERTEX
  5
317
330
313
100
AcDbEntity
  8
Symbol (ANSI)
100
AcDbVertex
100
AcDb2dVertex
 10
1.981028233926127
 20
5.651930185753529
 30
0.0
  0
VERTEX
  5
318
330
313
100
AcDbEntity
  8
Symbol (ANSI)
100
AcDbVertex
100
AcDb2dVertex
 10
2.019746284785232
 20
5.659066222784087
 30
0.0
  0
SEQEND
  5
316
330
313
100
AcDbEntity
  8
Symbol (ANSI)
  0
SOLID
  5
319
330
30F
100
AcDbEntity
  8
Symbol (ANSI)
100
AcDbTrace
 10
2.019746284785232
 20
5.659066222784087
 30
0.0
 11
1.982546603585791
 21
5.752292768223078
 31
0.0
 12
1.981028233926127
 22
5.651930185753529
 32
0.0
 13
2.019746284785232
 23
5.659066222784087
 33
0.0
  0
LINE
  5
31A
330
30F
100
AcDbEntity
  8
Symbol (ANSI)
100
AcDbLine
 10
2.019746208175274
 20
5.6590662686632
 30
0.0
 11
1.982546627455924
 21
5.752292935150556
 31
0.0
  0
LINE
  5
31B
330
30F
100
AcDbEntity
  8
Symbol (ANSI)
100
AcDbLine
 10
1.982546627455924
 20
5.752292935150556
 30
0.0
 11
1.981028291778649
 21
5.651930019654784
 31
0.0
  0
LINE
  5
31C
330
30F
100
AcDbEntity
  8
Symbol (ANSI)
100
AcDbLine
 10
1.981028291778649
 20
5.651930019654784
 30
0.0
 11
2.019746208175274
 21
5.6590662686632
 31
0.0
  0
LINE
  5
31D
330
30F
100
AcDbEntity
  8
Symbol (ANSI)
100
AcDbLine
 10
2.000387249976962
 20
5.655498144158991
 30
0.0
 11
2.086337701318699
 21
5.189171592860477
 31
0.0
  0
LINE
  5
31E
330
30F
100
AcDbEntity
  8
Symbol (ANSI)
100
AcDbLine
 10
2.086337701318699
 20
5.189171592860477
 30
0.0
 11
2.184762898169092
 21
5.189171592860477
 31
0.0
  0
MTEXT
  5
31F
330
30F
100
AcDbEntity
  8
Symbol (ANSI)
100
AcDbMText
 10
2.183225004468305
 20
5.128977103858392
 30
0.0
 40
0.1200000014830762
 41
0.0
 71
     7
 72
     1
  1
A1
  7
Text Style29
 73
     1
 44
1.0
1001
ACAD
1000
MTEXTBEGIN
1070
    73
1070
     1
1070
    44
1040
1.0
1070
    74
1070
     0
1000
MTEXTEND
  0
ENDBLK
  5
311
330
30F
100
AcDbEntity
  8
0
100
AcDbBlockEnd
  0
BLOCK
  5
322
330
321
100
AcDbEntity
  8
0
100
AcDbBlockBegin
  2
Leader Text5
 70
     0
 10
0.0
 20
0.0
 30
0.0
  3
Leader Text5
  1

  0
LINE
  5
324
330
321
100
AcDbEntity
  8
Symbol (ANSI)
100
AcDbLine
 10
3.620423366634267
 20
5.657457623321126
 30
0.0
 11
3.59286466190813
 21
5.751945914494458
 31
0.0
  0
POLYLINE
  5
325
330
321
100
AcDbEntity
  8
Symbol (ANSI)
100
AcDb2dPolyline
 66
     1
 10
0.0
 20
0.0
 30
0.0
 70
   128
  0
VERTEX
  5
326
330
325
100
AcDbEntity
  8
Symbol (ANSI)
100
AcDbVertex
100
AcDb2dVertex
 10
3.639321064385841
 20
5.662969529159425
 30
0.0
  0
VERTEX
  5
327
330
325
100
AcDbEntity
  8
Symbol (ANSI)
100
AcDbVertex
100
AcDb2dVertex
 10
3.59286473491999
 20
5.751945841030811
 30
0.0
  0
VERTEX
  5
329
330
325
100
AcDbEntity
  8
Symbol (ANSI)
100
AcDbVertex
100
AcDb2dVertex
 10
3.60152552446981
 20
5.651945955171359
 30
0.0
  0
VERTEX
  5
32A
330
325
100
AcDbEntity
  8
Symbol (ANSI)
100
AcDbVertex
100
AcDb2dVertex
 10
3.639321064385841
 20
5.662969529159425
 30
0.0
  0
SEQEND
  5
328
330
325
100
AcDbEntity
  8
Symbol (ANSI)
  0
SOLID
  5
32B
330
321
100
AcDbEntity
  8
Symbol (ANSI)
100
AcDbTrace
 10
3.639321064385841
 20
5.662969529159425
 30
0.0
 11
3.59286473491999
 21
5.751945841030811
 31
0.0
 12
3.60152552446981
 22
5.651945955171359
 32
0.0
 13
3.639321064385841
 23
5.662969529159425
 33
0.0
  0
LINE
  5
32C
330
321
100
AcDbEntity
  8
Symbol (ANSI)
100
AcDbLine
 10
3.639321024868933
 20
5.662969364266354
 30
0.0
 11
3.59286466190813
 21
5.751945914494458
 31
0.0
  0
LINE
  5
32D
330
321
100
AcDbEntity
  8
Symbol (ANSI)
100
AcDbLine
 10
3.59286466190813
 20
5.751945914494458
 30
0.0
 11
3.6015257083996
 21
5.651945882375899
 31
0.0
  0
LINE
  5
32E
330
321
100
AcDbEntity
  8
Symbol (ANSI)
100
AcDbLine
 10
3.6015257083996
 20
5.651945882375899
 30
0.0
 11
3.639321024868933
 21
5.662969364266354
 31
0.0
  0
LINE
  5
32F
330
321
100
AcDbEntity
  8
Symbol (ANSI)
100
AcDbLine
 10
3.620423366634267
 20
5.657457623321126
 30
0.0
 11
3.741144566669015
 21
5.243550655884472
 31
0.0
  0
LINE
  5
330
330
321
100
AcDbEntity
  8
Symbol (ANSI)
100
AcDbLine
 10
3.741144566669015
 20
5.243550655884472
 30
0.0
 11
3.839569763519408
 21
5.243550655884472
 31
0.0
  0
MTEXT
  5
331
330
321
100
AcDbEntity
  8
Symbol (ANSI)
100
AcDbMText
 10
3.863599352594212
 20
5.183356166882386
 30
0.0
 40
0.1200000014830762
 41
0.0
 71
     7
 72
     1
  1
D1
  7
Text Style29
 73
     1
 44
1.0
1001
ACAD
1000
MTEXTBEGIN
1070
    73
1070
     1
1070
    44
1040
1.0
1070
    74
1070
     0
1000
MTEXTEND
  0
ENDBLK
  5
323
330
321
100
AcDbEntity
  8
0
100
AcDbBlockEnd
  0
BLOCK
  5
334
330
333
100
AcDbEntity
  8
0
100
AcDbBlockBegin
  2
Leader Text6
 70
     0
 10
0.0
 20
0.0
 30
0.0
  3
Leader Text6
  1

  0
LINE
  5
336
330
333
100
AcDbEntity
  8
Symbol (ANSI)
100
AcDbLine
 10
1.984403409827987
 20
6.807246912224038
 30
0.0
 11
1.958928846996233
 21
6.712175538911301
 31
0.0
  0
POLYLINE
  5
337
330
333
100
AcDbEntity
  8
Symbol (ANSI)
100
AcDb2dPolyline
 66
     1
 10
0.0
 20
0.0
 30
0.0
 70
   128
  0
VERTEX
  5
338
330
337
100
AcDbEntity
  8
Symbol (ANSI)
100
AcDbVertex
100
AcDb2dVertex
 10
1.965389101524052
 20
6.812341945377859
 30
0.0
  0
VERTEX
  5
339
330
337
100
AcDbEntity
  8
Symbol (ANSI)
100
AcDbVertex
100
AcDb2dVertex
 10
1.958928896686223
 20
6.712175354244201
 30
0.0
  0
VERTEX
  5
33B
330
337
100
AcDbEntity
  8
Symbol (ANSI)
100
AcDbVertex
100
AcDb2dVertex
 10
2.00341761581541
 20
6.802151897760825
 30
0.0
  0
VERTEX
  5
33C
330
337
100
AcDbEntity
  8
Symbol (ANSI)
100
AcDbVertex
100
AcDb2dVertex
 10
1.965389101524052
 20
6.812341945377859
 30
0.0
  0
SEQEND
  5
33A
330
337
100
AcDbEntity
  8
Symbol (ANSI)
  0
SOLID
  5
33D
330
333
100
AcDbEntity
  8
Symbol (ANSI)
100
AcDbTrace
 10
1.965389101524052
 20
6.812341945377859
 30
0.0
 11
1.958928896686223
 21
6.712175354244201
 31
0.0
 12
2.00341761581541
 22
6.802151897760825
 32
0.0
 13
1.965389101524052
 23
6.812341945377859
 33
0.0
  0
LINE
  5
33E
330
333
100
AcDbEntity
  8
Symbol (ANSI)
100
AcDbLine
 10
1.96538913516544
 20
6.812341824790388
 30
0.0
 11
1.958928846996233
 21
6.712175538911301
 31
0.0
  0
LINE
  5
33F
330
333
100
AcDbEntity
  8
Symbol (ANSI)
100
AcDbLine
 10
1.958928846996233
 20
6.712175538911301
 30
0.0
 11
2.003417684490535
 21
6.802151999657686
 31
0.0
  0
LINE
  5
340
330
333
100
AcDbEntity
  8
Symbol (ANSI)
100
AcDbLine
 10
2.003417684490535
 20
6.802151999657686
 30
0.0
 11
1.96538913516544
 21
6.812341824790388
 31
0.0
  0
LINE
  5
341
330
333
100
AcDbEntity
  8
Symbol (ANSI)
100
AcDbLine
 10
1.984403409827987
 20
6.807246912224038
 30
0.0
 11
2.017726492368826
 21
6.931609055005235
 31
0.0
  0
LINE
  5
342
330
333
100
AcDbEntity
  8
Symbol (ANSI)
100
AcDbLine
 10
2.017726492368826
 20
6.931609055005235
 30
0.0
 11
2.11615168921922
 21
6.931609055005235
 31
0.0
  0
MTEXT
  5
343
330
333
100
AcDbEntity
  8
Symbol (ANSI)
100
AcDbMText
 10
2.140181278294023
 20
6.870344873953033
 30
0.0
 40
0.1200000014830762
 41
0.0
 71
     7
 72
     1
  1
D2
  7
Text Style29
 73
     1
 44
1.0
1001
ACAD
1000
MTEXTBEGIN
1070
    73
1070
     1
1070
    44
1040
1.0
1070
    74
1070
     0
1000
MTEXTEND
  0
ENDBLK
  5
335
330
333
100
AcDbEntity
  8
0
100
AcDbBlockEnd
  0
BLOCK
  5
346
330
345
100
AcDbEntity
  8
0
100
AcDbBlockBegin
  2
Leader Text7
 70
     0
 10
0.0
 20
0.0
 30
0.0
  3
Leader Text7
  1

  0
LINE
  5
348
330
345
100
AcDbEntity
  8
Symbol (ANSI)
100
AcDbLine
 10
3.203333027533283
 20
3.246699739267974
 30
0.0
 11
3.176592948958486
 21
3.151976523671943
 31
0.0
  0
POLYLINE
  5
349
330
345
100
AcDbEntity
  8
Symbol (ANSI)
100
AcDb2dPolyline
 66
     1
 10
0.0
 20
0.0
 30
0.0
 70
   128
  0
VERTEX
  5
34A
330
349
100
AcDbEntity
  8
Symbol (ANSI)
100
AcDbVertex
100
AcDb2dVertex
 10
3.184388378473717
 20
3.252047816599447
 30
0.0
  0
VERTEX
  5
34B
330
349
100
AcDbEntity
  8
Symbol (ANSI)
100
AcDbVertex
100
AcDb2dVertex
 10
3.176593029592919
 20
3.151976592897429
 30
0.0
  0
VERTEX
  5
34D
330
349
100
AcDbEntity
  8
Symbol (ANSI)
100
AcDbVertex
100
AcDb2dVertex
 10
3.222277783972071
 20
3.241351645762525
 30
0.0
  0
VERTEX
  5
34E
330
349
100
AcDbEntity
  8
Symbol (ANSI)
100
AcDbVertex
100
AcDb2dVertex
 10
3.184388378473717
 20
3.252047816599447
 30
0.0
  0
SEQEND
  5
34C
330
349
100
AcDbEntity
  8
Symbol (ANSI)
  0
SOLID
  5
34F
330
345
100
AcDbEntity
  8
Symbol (ANSI)
100
AcDbTrace
 10
3.184388378473717
 20
3.252047816599447
 30
0.0
 11
3.176593029592919
 21
3.151976592897429
 31
0.0
 12
3.222277783972071
 22
3.241351645762525
 32
0.0
 13
3.184388378473717
 23
3.252047816599447
 33
0.0
  0
LINE
  5
350
330
345
100
AcDbEntity
  8
Symbol (ANSI)
100
AcDbLine
 10
3.184388384414077
 20
3.252047754982934
 30
0.0
 11
3.176592948958486
 21
3.151976523671943
 31
0.0
  0
LINE
  5
351
330
345
100
AcDbEntity
  8
Symbol (ANSI)
100
AcDbLine
 10
3.176592948958486
 20
3.151976523671943
 30
0.0
 11
3.22227767065249
 21
3.241351723553016
 31
0.0
  0
LINE
  5
352
330
345
100
AcDbEntity
  8
Symbol (ANSI)
100
AcDbLine
 10
3.22227767065249
 20
3.241351723553016
 30
0.0
 11
3.184388384414077
 21
3.252047754982934
 31
0.0
  0
LINE
  5
353
330
345
100
AcDbEntity
  8
Symbol (ANSI)
100
AcDbLine
 10
3.203333027533283
 20
3.246699739267974
 30
0.0
 11
3.314480680454034
 21
3.64042569864224
 31
0.0
  0
LINE
  5
354
330
345
100
AcDbEntity
  8
Symbol (ANSI)
100
AcDbLine
 10
3.314480680454034
 20
3.64042569864224
 30
0.0
 11
3.412905877304428
 21
3.64042569864224
 31
0.0
  0
MTEXT
  5
355
330
345
100
AcDbEntity
  8
Symbol (ANSI)
100
AcDbMText
 10
3.426362447186317
 20
3.578043203174005
 30
0.0
 40
0.1200000014830762
 41
0.0
 71
     7
 72
     1
  1
6
  7
Text Style29
 73
     1
 44
1.0
1001
ACAD
1000
MTEXTBEGIN
1070
    73
1070
     1
1070
    44
1040
1.0
1070
    74
1070
     0
1000
MTEXTEND
  0
ENDBLK
  5
347
330
345
100
AcDbEntity
  8
0
100
AcDbBlockEnd
  0
BLOCK
  5
358
330
357
100
AcDbEntity
  8
0
100
AcDbBlockBegin
  2
Leader Text8
 70
     0
 10
0.0
 20
0.0
 30
0.0
  3
Leader Text8
  1

  0
LINE
  5
35A
330
357
100
AcDbEntity
  8
Symbol (ANSI)
100
AcDbLine
 10
2.401685233927832
 20
3.24948311368506
 30
0.0
 11
2.378164692958887
 21
3.153909563329499
 31
0.0
  0
POLYLINE
  5
35B
330
357
100
AcDbEntity
  8
Symbol (ANSI)
100
AcDb2dPolyline
 66
     1
 10
0.0
 20
0.0
 30
0.0
 70
   128
  0
VERTEX
  5
35C
330
35B
100
AcDbEntity
  8
Symbol (ANSI)
100
AcDbVertex
100
AcDb2dVertex
 10
2.382570552075002
 20
3.254187200951763
 30
0.0
  0
VERTEX
  5
35D
330
35B
100
AcDbEntity
  8
Symbol (ANSI)
100
AcDbVertex
100
AcDb2dVertex
 10
2.378164689371904
 20
3.153909472968634
 30
0.0
  0
VERTEX
  5
35F
330
35B
100
AcDbEntity
  8
Symbol (ANSI)
100
AcDbVertex
100
AcDb2dVertex
 10
2.420799938712532
 20
3.244778865904319
 30
0.0
  0
VERTEX
  5
360
330
35B
100
AcDbEntity
  8
Symbol (ANSI)
100
AcDbVertex
100
AcDb2dVertex
 10
2.382570552075002
 20
3.254187200951763
 30
0.0
  0
SEQEND
  5
35E
330
35B
100
AcDbEntity
  8
Symbol (ANSI)
  0
SOLID
  5
361
330
357
100
AcDbEntity
  8
Symbol (ANSI)
100
AcDbTrace
 10
2.382570552075002
 20
3.254187200951763
 30
0.0
 11
2.378164689371904
 21
3.153909472968634
 31
0.0
 12
2.420799938712532
 22
3.244778865904319
 32
0.0
 13
2.382570552075002
 23
3.254187200951763
 33
0.0
  0
LINE
  5
362
330
357
100
AcDbEntity
  8
Symbol (ANSI)
100
AcDbLine
 10
2.38257052385672
 20
3.254187221878849
 30
0.0
 11
2.378164692958887
 21
3.153909563329499
 31
0.0
  0
LINE
  5
363
330
357
100
AcDbEntity
  8
Symbol (ANSI)
100
AcDbLine
 10
2.378164692958887
 20
3.153909563329499
 30
0.0
 11
2.420799943998944
 21
3.24477900549127
 31
0.0
  0
LINE
  5
364
330
357
100
AcDbEntity
  8
Symbol (ANSI)
100
AcDbLine
 10
2.420799943998944
 20
3.24477900549127
 30
0.0
 11
2.38257052385672
 21
3.254187221878849
 31
0.0
  0
LINE
  5
365
330
357
100
AcDbEntity
  8
Symbol (ANSI)
100
AcDbLine
 10
2.401685233927832
 20
3.24948311368506
 30
0.0
 11
2.492744466106759
 21
3.619493910778621
 31
0.0
  0
LINE
  5
366
330
357
100
AcDbEntity
  8
Symbol (ANSI)
100
AcDbLine
 10
2.492744466106759
 20
3.619493910778621
 30
0.0
 11
2.591169662957153
 21
3.619493910778621
 31
0.0
  0
MTEXT
  5
367
330
357
100
AcDbEntity
  8
Symbol (ANSI)
100
AcDbMText
 10
2.61097004435479
 20
3.558229729726419
 30
0.0
 40
0.1200000014830762
 41
0.0
 71
     7
 72
     1
  1
5
  7
Text Style29
 73
     1
 44
1.0
1001
ACAD
1000
MTEXTBEGIN
1070
    73
1070
     1
1070
    44
1040
1.0
1070
    74
1070
     0
1000
MTEXTEND
  0
ENDBLK
  5
359
330
357
100
AcDbEntity
  8
0
100
AcDbBlockEnd
  0
BLOCK
  5
36A
330
369
100
AcDbEntity
  8
0
100
AcDbBlockBegin
  2
Leader Text9
 70
     0
 10
0.0
 20
0.0
 30
0.0
  3
Leader Text9
  1

  0
LINE
  5
36C
330
369
100
AcDbEntity
  8
Symbol (ANSI)
100
AcDbLine
 10
3.542724566625722
 20
1.644717544400255
 30
0.0
 11
3.500287165836896
 21
1.73352399906053
 31
0.0
  0
POLYLINE
  5
36D
330
369
100
AcDbEntity
  8
Symbol (ANSI)
100
AcDb2dPolyline
 66
     1
 10
0.0
 20
0.0
 30
0.0
 70
   128
  0
VERTEX
  5
36E
330
36D
100
AcDbEntity
  8
Symbol (ANSI)
100
AcDbVertex
100
AcDb2dVertex
 10
3.560485990028681
 20
1.653204940435454
 30
0.0
  0
VERTEX
  5
36F
330
36D
100
AcDbEntity
  8
Symbol (ANSI)
100
AcDbVertex
100
AcDb2dVertex
 10
3.500286988386018
 20
1.733524029649148
 30
0.0
  0
VERTEX
  5
371
330
36D
100
AcDbEntity
  8
Symbol (ANSI)
100
AcDbVertex
100
AcDb2dVertex
 10
3.524963123591865
 20
1.636230100796917
 30
0.0
  0
VERTEX
  5
372
330
36D
100
AcDbEntity
  8
Symbol (ANSI)
100
AcDbVertex
100
AcDb2dVertex
 10
3.560485990028681
 20
1.653204940435454
 30
0.0
  0
SEQEND
  5
370
330
36D
100
AcDbEntity
  8
Symbol (ANSI)
  0
SOLID
  5
373
330
369
100
AcDbEntity
  8
Symbol (ANSI)
100
AcDbTrace
 10
3.560485990028681
 20
1.653204940435454
 30
0.0
 11
3.500286988386018
 21
1.733524029649148
 31
0.0
 12
3.524963123591865
 22
1.636230100796917
 32
0.0
 13
3.560485990028681
 23
1.653204940435454
 33
0.0
  0
LINE
  5
374
330
369
100
AcDbEntity
  8
Symbol (ANSI)
100
AcDbLine
 10
3.560485857557777
 20
1.653205024558021
 30
0.0
 11
3.500287165836896
 21
1.73352399906053
 31
0.0
  0
LINE
  5
375
330
369
100
AcDbEntity
  8
Symbol (ANSI)
100
AcDbLine
 10
3.500287165836896
 20
1.73352399906053
 30
0.0
 11
3.524963275693667
 21
1.63623006424249
 31
0.0
  0
LINE
  5
376
330
369
100
AcDbEntity
  8
Symbol (ANSI)
100
AcDbLine
 10
3.524963275693667
 20
1.63623006424249
 30
0.0
 11
3.560485857557777
 21
1.653205024558021
 31
0.0
  0
LINE
  5
377
330
369
100
AcDbEntity
  8
Symbol (ANSI)
100
AcDbLine
 10
3.542724566625722
 20
1.644717544400255
 30
0.0
 11
3.685341004667345
 21
1.346271833698576
 31
0.0
  0
LINE
  5
378
330
369
100
AcDbEntity
  8
Symbol (ANSI)
100
AcDbLine
 10
3.685341004667345
 20
1.346271833698576
 30
0.0
 11
3.783766201517739
 21
1.346271833698576
 31
0.0
  0
MTEXT
  5
379
330
369
100
AcDbEntity
  8
Symbol (ANSI)
100
AcDbMText
 10
3.801067505651597
 20
1.285007652646373
 30
0.0
 40
0.1200000014830762
 41
0.0
 71
     7
 72
     1
  1
2
  7
Text Style29
 73
     1
 44
1.0
1001
ACAD
1000
MTEXTBEGIN
1070
    73
1070
     1
1070
    44
1040
1.0
1070
    74
1070
     0
1000
MTEXTEND
  0
ENDBLK
  5
36B
330
369
100
AcDbEntity
  8
0
100
AcDbBlockEnd
  0
BLOCK
  5
37C
330
37B
100
AcDbEntity
  8
0
100
AcDbBlockBegin
  2
Leader Text10
 70
     0
 10
0.0
 20
0.0
 30
0.0
  3
Leader Text10
  1

  0
LINE
  5
37E
330
37B
100
AcDbEntity
  8
Symbol (ANSI)
100
AcDbLine
 10
1.560837723395251
 20
1.638940177711102
 30
0.0
 11
1.523441207964022
 21
1.729984233028517
 31
0.0
  0
POLYLINE
  5
37F
330
37B
100
AcDbEntity
  8
Symbol (ANSI)
100
AcDb2dPolyline
 66
     1
 10
0.0
 20
0.0
 30
0.0
 70
   128
  0
VERTEX
  5
380
330
37F
100
AcDbEntity
  8
Symbol (ANSI)
100
AcDbVertex
100
AcDb2dVertex
 10
1.579046624851977
 20
1.646419397489292
 30
0.0
  0
VERTEX
  5
381
330
37F
100
AcDbEntity
  8
Symbol (ANSI)
100
AcDbVertex
100
AcDb2dVertex
 10
1.523441217077059
 20
1.729984170808566
 30
0.0
  0
VERTEX
  5
383
330
37F
100
AcDbEntity
  8
Symbol (ANSI)
100
AcDbVertex
100
AcDb2dVertex
 10
1.542628937818872
 20
1.631460790559062
 30
0.0
  0
VERTEX
  5
384
330
37F
100
AcDbEntity
  8
Symbol (ANSI)
100
AcDbVertex
100
AcDb2dVertex
 10
1.579046624851977
 20
1.646419397489292
 30
0.0
  0
SEQEND
  5
382
330
37F
100
AcDbEntity
  8
Symbol (ANSI)
  0
SOLID
  5
385
330
37B
100
AcDbEntity
  8
Symbol (ANSI)
100
AcDbTrace
 10
1.579046624851977
 20
1.646419397489292
 30
0.0
 11
1.523441217077059
 21
1.729984170808566
 31
0.0
 12
1.542628937818872
 22
1.631460790559062
 32
0.0
 13
1.579046624851977
 23
1.646419397489292
 33
0.0
  0
LINE
  5
386
330
37B
100
AcDbEntity
  8
Symbol (ANSI)
100
AcDbLine
 10
1.579046534458734
 20
1.646419480797348
 30
0.0
 11
1.523441207964022
 21
1.729984233028517
 31
0.0
  0
LINE
  5
387
330
37B
100
AcDbEntity
  8
Symbol (ANSI)
100
AcDbLine
 10
1.523441207964022
 20
1.729984233028517
 30
0.0
 11
1.542628912331768
 21
1.631460874624856
 31
0.0
  0
LINE
  5
388
330
37B
100
AcDbEntity
  8
Symbol (ANSI)
100
AcDbLine
 10
1.542628912331768
 20
1.631460874624856
 30
0.0
 11
1.579046534458734
 21
1.646419480797348
 31
0.0
  0
LINE
  5
389
330
37B
100
AcDbEntity
  8
Symbol (ANSI)
100
AcDbLine
 10
1.560837723395251
 20
1.638940177711102
 30
0.0
 11
1.702650481812831
 21
1.293688528641596
 31
0.0
  0
LINE
  5
38A
330
37B
100
AcDbEntity
  8
Symbol (ANSI)
100
AcDbLine
 10
1.702650481812831
 20
1.293688528641596
 30
0.0
 11
1.801075678663225
 21
1.293688528641596
 31
0.0
  0
MTEXT
  5
38B
330
37B
100
AcDbEntity
  8
Symbol (ANSI)
100
AcDbMText
 10
1.83702394391913
 20
1.233494039639511
 30
0.0
 40
0.1200000014830762
 41
0.0
 71
     7
 72
     1
  1
1
  7
Text Style29
 73
     1
 44
1.0
1001
ACAD
1000
MTEXTBEGIN
1070
    73
1070
     1
1070
    44
1040
1.0
1070
    74
1070
     0
1000
MTEXTEND
  0
ENDBLK
  5
37D
330
37B
100
AcDbEntity
  8
0
100
AcDbBlockEnd
  0
BLOCK
  5
38F
330
38E
100
AcDbEntity
  8
0
100
AcDbBlockBegin
  2
Leader Text11
 70
     0
 10
0.0
 20
0.0
 30
0.0
  3
Leader Text11
  1

  0
LINE
  5
391
330
38E
100
AcDbEntity
  8
Symbol (ANSI)
100
AcDbLine
 10
3.60978230796798
 20
7.138398404307868
 30
0.0
 11
3.577805245690122
 21
7.04531249311226
 31
0.0
  0
POLYLINE
  5
392
330
38E
100
AcDbEntity
  8
Symbol (ANSI)
100
AcDb2dPolyline
 66
     1
 10
0.0
 20
0.0
 30
0.0
 70
   128
  0
VERTEX
  5
393
330
392
100
AcDbEntity
  8
Symbol (ANSI)
100
AcDbVertex
100
AcDb2dVertex
 10
3.591165016955277
 20
7.144793563001737
 30
0.0
  0
VERTEX
  5
394
330
392
100
AcDbEntity
  8
Symbol (ANSI)
100
AcDbVertex
100
AcDb2dVertex
 10
3.577805316354345
 20
7.045312566081369
 30
0.0
  0
VERTEX
  5
396
330
392
100
AcDbEntity
  8
Symbol (ANSI)
100
AcDbVertex
100
AcDb2dVertex
 10
3.628399616151343
 20
7.132003063292014
 30
0.0
  0
VERTEX
  5
397
330
392
100
AcDbEntity
  8
Symbol (ANSI)
100
AcDbVertex
100
AcDb2dVertex
 10
3.591165016955277
 20
7.144793563001737
 30
0.0
  0
SEQEND
  5
395
330
392
100
AcDbEntity
  8
Symbol (ANSI)
  0
SOLID
  5
398
330
38E
100
AcDbEntity
  8
Symbol (ANSI)
100
AcDbTrace
 10
3.591165016955277
 20
7.144793563001737
 30
0.0
 11
3.577805316354345
 21
7.045312566081369
 31
0.0
 12
3.628399616151343
 22
7.132003063292014
 32
0.0
 13
3.591165016955277
 23
7.144793563001737
 33
0.0
  0
LINE
  5
399
330
38E
100
AcDbEntity
  8
Symbol (ANSI)
100
AcDbLine
 10
3.591165125728859
 20
7.144793816763439
 30
0.0
 11
3.577805245690122
 21
7.04531249311226
 31
0.0
  0
LINE
  5
39A
330
38E
100
AcDbEntity
  8
Symbol (ANSI)
100
AcDbLine
 10
3.577805245690122
 20
7.04531249311226
 30
0.0
 11
3.628399490207102
 21
7.132002991852297
 31
0.0
  0
LINE
  5
39B
330
38E
100
AcDbEntity
  8
Symbol (ANSI)
100
AcDbLine
 10
3.628399490207102
 20
7.132002991852297
 30
0.0
 11
3.591165125728859
 21
7.144793816763439
 31
0.0
  0
LINE
  5
39C
330
38E
100
AcDbEntity
  8
Symbol (ANSI)
100
AcDbLine
 10
3.60978230796798
 20
7.138398404307868
 30
0.0
 11
3.809480104161696
 21
7.719722953790278
 31
0.0
  0
LINE
  5
39D
330
38E
100
AcDbEntity
  8
Symbol (ANSI)
100
AcDbLine
 10
3.809480104161696
 20
7.719722953790278
 30
0.0
 11
3.90790530101209
 21
7.719722953790278
 31
0.0
  0
MTEXT
  5
39E
330
38E
100
AcDbEntity
  8
Symbol (ANSI)
100
AcDbMText
 10
3.918478320205003
 20
7.657583570151616
 30
0.0
 40
0.1200000014830762
 41
0.0
 71
     7
 72
     1
  1
C1
  7
Text Style29
 73
     1
 44
1.0
1001
ACAD
1000
MTEXTBEGIN
1070
    73
1070
     1
1070
    44
1040
1.0
1070
    74
1070
     0
1000
MTEXTEND
  0
ENDBLK
  5
390
330
38E
100
AcDbEntity
  8
0
100
AcDbBlockEnd
  0
BLOCK
  5
3A1
330
3A0
100
AcDbEntity
  8
0
100
AcDbBlockBegin
  2
Leader Text12
 70
     0
 10
0.0
 20
0.0
 30
0.0
  3
Leader Text12
  1

  0
LINE
  5
3A3
330
3A0
100
AcDbEntity
  8
Symbol (ANSI)
100
AcDbLine
 10
1.406768539246304
 20
7.1440506727859
 30
0.0
 11
1.382868992688378
 21
7.048571193056671
 31
0.0
  0
POLYLINE
  5
3A4
330
3A0
100
AcDbEntity
  8
Symbol (ANSI)
100
AcDb2dPolyline
 66
     1
 10
0.0
 20
0.0
 30
0.0
 70
   128
  0
VERTEX
  5
3A5
330
3A4
100
AcDbEntity
  8
Symbol (ANSI)
100
AcDbVertex
100
AcDb2dVertex
 10
1.387672630820687
 20
7.148830533966304
 30
0.0
  0
VERTEX
  5
3A6
330
3A4
100
AcDbEntity
  8
Symbol (ANSI)
100
AcDbVertex
100
AcDb2dVertex
 10
1.382868965779702
 20
7.04857082817498
 30
0.0
  0
VERTEX
  5
3A8
330
3A4
100
AcDbEntity
  8
Symbol (ANSI)
100
AcDbVertex
100
AcDb2dVertex
 10
1.425864471225287
 20
7.139270512137825
 30
0.0
  0
VERTEX
  5
3A9
330
3A4
100
AcDbEntity
  8
Symbol (ANSI)
100
AcDbVertex
100
AcDb2dVertex
 10
1.387672630820687
 20
7.148830533966304
 30
0.0
  0
SEQEND
  5
3A7
330
3A4
100
AcDbEntity
  8
Symbol (ANSI)
  0
SOLID
  5
3AA
330
3A0
100
AcDbEntity
  8
Symbol (ANSI)
100
AcDbTrace
 10
1.387672630820687
 20
7.148830533966304
 30
0.0
 11
1.382868965779702
 21
7.04857082817498
 31
0.0
 12
1.425864471225287
 22
7.139270512137825
 32
0.0
 13
1.387672630820687
 23
7.148830533966304
 33
0.0
  0
LINE
  5
3AB
330
3A0
100
AcDbEntity
  8
Symbol (ANSI)
100
AcDbLine
 10
1.387672643300458
 20
7.148830582097486
 30
0.0
 11
1.382868992688378
 21
7.048571193056671
 31
0.0
  0
LINE
  5
3AC
330
3A0
100
AcDbEntity
  8
Symbol (ANSI)
100
AcDbLine
 10
1.382868992688378
 20
7.048571193056671
 30
0.0
 11
1.42586443519215
 21
7.139270763474315
 31
0.0
  0
LINE
  5
3AD
330
3A0
100
AcDbEntity
  8
Symbol (ANSI)
100
AcDbLine
 10
1.42586443519215
 20
7.139270763474315
 30
0.0
 11
1.387672643300458
 21
7.148830582097486
 31
0.0
  0
LINE
  5
3AE
330
3A0
100
AcDbEntity
  8
Symbol (ANSI)
100
AcDbLine
 10
1.406768539246304
 20
7.1440506727859
 30
0.0
 11
1.525892430723285
 21
7.619954563011431
 31
0.0
  0
LINE
  5
3AF
330
3A0
100
AcDbEntity
  8
Symbol (ANSI)
100
AcDbLine
 10
1.525892430723285
 20
7.619954563011431
 30
0.0
 11
1.624317627573679
 21
7.619954563011431
 31
0.0
  0
MTEXT
  5
3B0
330
3A0
100
AcDbEntity
  8
Symbol (ANSI)
100
AcDbMText
 10
1.648347216648482
 20
7.559760074009346
 30
0.0
 40
0.1200000014830762
 41
0.0
 71
     7
 72
     1
  1
B1
  7
Text Style29
 73
     1
 44
1.0
1001
ACAD
1000
MTEXTBEGIN
1070
    73
1070
     1
1070
    44
1040
1.0
1070
    74
1070
     0
1000
MTEXTEND
  0
ENDBLK
  5
3A2
330
3A0
100
AcDbEntity
  8
0
100
AcDbBlockEnd
  0
BLOCK
  5
3B3
330
3B2
100
AcDbEntity
  8
0
100
AcDbBlockBegin
  2
Leader Text13
 70
     0
 10
0.0
 20
0.0
 30
0.0
  3
Leader Text13
  1

  0
LINE
  5
3B5
330
3B2
100
AcDbEntity
  8
Symbol (ANSI)
100
AcDbLine
 10
1.4282091108367
 20
3.196833967817251
 30
0.0
 11
1.390213067007283
 21
3.106038483191903
 31
0.0
  0
POLYLINE
  5
3B6
330
3B2
100
AcDbEntity
  8
Symbol (ANSI)
100
AcDb2dPolyline
 66
     1
 10
0.0
 20
0.0
 30
0.0
 70
   128
  0
VERTEX
  5
3B7
330
3B6
100
AcDbEntity
  8
Symbol (ANSI)
100
AcDbVertex
100
AcDb2dVertex
 10
1.410049997915433
 20
3.204433185847725
 30
0.0
  0
VERTEX
  5
3B8
330
3B6
100
AcDbEntity
  8
Symbol (ANSI)
100
AcDbVertex
100
AcDb2dVertex
 10
1.390213102806271
 20
3.106038401446004
 30
0.0
  0
VERTEX
  5
3BA
330
3B6
100
AcDbEntity
  8
Symbol (ANSI)
100
AcDbVertex
100
AcDb2dVertex
 10
1.446368187431275
 20
3.189234846220241
 30
0.0
  0
VERTEX
  5
3BB
330
3B6
100
AcDbEntity
  8
Symbol (ANSI)
100
AcDbVertex
100
AcDb2dVertex
 10
1.410049997915433
 20
3.204433185847725
 30
0.0
  0
SEQEND
  5
3B9
330
3B6
100
AcDbEntity
  8
Symbol (ANSI)
  0
SOLID
  5
3BC
330
3B2
100
AcDbEntity
  8
Symbol (ANSI)
100
AcDbTrace
 10
1.410049997915433
 20
3.204433185847725
 30
0.0
 11
1.390213102806271
 21
3.106038401446004
 31
0.0
 12
1.446368187431275
 22
3.189234846220241
 32
0.0
 13
1.410049997915433
 23
3.204433185847725
 33
0.0
  0
LINE
  5
3BD
330
3B2
100
AcDbEntity
  8
Symbol (ANSI)
100
AcDbLine
 10
1.410050013911631
 20
3.204433176583134
 30
0.0
 11
1.390213067007283
 21
3.106038483191903
 31
0.0
  0
LINE
  5
3BE
330
3B2
100
AcDbEntity
  8
Symbol (ANSI)
100
AcDbLine
 10
1.390213067007283
 20
3.106038483191903
 30
0.0
 11
1.44636820776177
 21
3.189234759051367
 31
0.0
  0
LINE
  5
3BF
330
3B2
100
AcDbEntity
  8
Symbol (ANSI)
100
AcDbLine
 10
1.44636820776177
 20
3.189234759051367
 30
0.0
 11
1.410050013911631
 21
3.204433176583134
 31
0.0
  0
LINE
  5
3C0
330
3B2
100
AcDbEntity
  8
Symbol (ANSI)
100
AcDbLine
 10
1.4282091108367
 20
3.196833967817251
 30
0.0
 11
1.60701844109463
 21
3.624117394196838
 31
0.0
  0
LINE
  5
3C1
330
3B2
100
AcDbEntity
  8
Symbol (ANSI)
100
AcDbLine
 10
1.60701844109463
 20
3.624117394196838
 30
0.0
 11
1.705443637945024
 21
3.624117394196838
 31
0.0
  0
MTEXT
  5
3C2
330
3B2
100
AcDbEntity
  8
Symbol (ANSI)
100
AcDbMText
 10
1.711787449460772
 20
3.564117394658411
 30
0.0
 40
0.1200000014830762
 41
0.0
 71
     7
 72
     1
  1
4
  7
Text Style29
 73
     1
 44
1.0
1001
ACAD
1000
MTEXTBEGIN
1070
    73
1070
     1
1070
    44
1040
1.0
1070
    74
1070
     0
1000
MTEXTEND
  0
ENDBLK
  5
3B4
330
3B2
100
AcDbEntity
  8
0
100
AcDbBlockEnd
  0
BLOCK
  5
3C5
330
3C4
100
AcDbEntity
  8
0
100
AcDbBlockBegin
  2
Leader Text14
 70
     0
 10
0.0
 20
0.0
 30
0.0
  3
Leader Text14
  1

  0
LINE
  5
3C7
330
3C4
100
AcDbEntity
  8
Symbol (ANSI)
100
AcDbLine
 10
3.05116631089307
 20
2.068629326044759
 30
0.0
 11
3.093441073340922
 21
2.157513316926224
 31
0.0
  0
POLYLINE
  5
3C8
330
3C4
100
AcDbEntity
  8
Symbol (ANSI)
100
AcDb2dPolyline
 66
     1
 10
0.0
 20
0.0
 30
0.0
 70
   128
  0
VERTEX
  5
3C9
330
3C8
100
AcDbEntity
  8
Symbol (ANSI)
100
AcDbVertex
100
AcDb2dVertex
 10
3.068943098774106
 20
2.060174378823107
 30
0.0
  0
VERTEX
  5
3CA
330
3C8
100
AcDbEntity
  8
Symbol (ANSI)
100
AcDbVertex
100
AcDb2dVertex
 10
3.093441077104703
 20
2.157513363154853
 30
0.0
  0
VERTEX
  5
3CC
330
3C8
100
AcDbEntity
  8
Symbol (ANSI)
100
AcDbVertex
100
AcDb2dVertex
 10
3.033389444426288
 20
2.077084263478676
 30
0.0
  0
VERTEX
  5
3CD
330
3C8
100
AcDbEntity
  8
Symbol (ANSI)
100
AcDbVertex
100
AcDb2dVertex
 10
3.068943098774106
 20
2.060174378823107
 30
0.0
  0
SEQEND
  5
3CB
330
3C8
100
AcDbEntity
  8
Symbol (ANSI)
  0
SOLID
  5
3CE
330
3C4
100
AcDbEntity
  8
Symbol (ANSI)
100
AcDbTrace
 10
3.068943098774106
 20
2.060174378823107
 30
0.0
 11
3.093441077104703
 21
2.157513363154853
 31
0.0
 12
3.033389444426288
 22
2.077084263478676
 32
0.0
 13
3.068943098774106
 23
2.060174378823107
 33
0.0
  0
LINE
  5
3CF
330
3C4
100
AcDbEntity
  8
Symbol (ANSI)
100
AcDbLine
 10
3.068943109069363
 20
2.060174373555188
 30
0.0
 11
3.093441073340922
 21
2.157513316926224
 31
0.0
  0
LINE
  5
3D0
330
3C4
100
AcDbEntity
  8
Symbol (ANSI)
100
AcDbLine
 10
3.093441073340922
 20
2.157513316926224
 30
0.0
 11
3.033389512716777
 21
2.077084278534329
 31
0.0
  0
LINE
  5
3D1
330
3C4
100
AcDbEntity
  8
Symbol (ANSI)
100
AcDbLine
 10
3.033389512716777
 20
2.077084278534329
 30
0.0
 11
3.068943109069363
 21
2.060174373555188
 31
0.0
  0
LINE
  5
3D2
330
3C4
100
AcDbEntity
  8
Symbol (ANSI)
100
AcDbLine
 10
3.05116631089307
 20
2.068629326044759
 30
0.0
 11
2.723113152720122
 21
1.378887450956785
 31
0.0
  0
LINE
  5
3D3
330
3C4
100
AcDbEntity
  8
Symbol (ANSI)
100
AcDbLine
 10
2.723113152720122
 20
1.378887450956785
 30
0.0
 11
2.624687955869728
 21
1.378887450956785
 31
0.0
  0
MTEXT
  5
3D4
330
3C4
100
AcDbEntity
  8
Symbol (ANSI)
100
AcDbMText
 10
2.550018272326951
 20
1.316359088390807
 30
0.0
 40
0.1200000014830762
 41
0.0
 71
     7
 72
     1
  1
3
  7
Text Style29
 73
     1
 44
1.0
1001
ACAD
1000
MTEXTBEGIN
1070
    73
1070
     1
1070
    44
1040
1.0
1070
    74
1070
     0
1000
MTEXTEND
  0
ENDBLK
  5
3C6
330
3C4
100
AcDbEntity
  8
0
100
AcDbBlockEnd
  0
ENDSEC
  0
SECTION
  2
ENTITIES
  0
INSERT
  5
FE
330
37
100
AcDbEntity
  8
0
100
AcDbBlockReference
  2
Borders Default Border
 10
0.0
 20
0.0
 30
0.0
 41
0.25
 42
0.25
 43
0.25
  0
LINE
  5
FF
330
37
100
AcDbEntity
  8
Visible (ANSI)
100
AcDbLine
 10
1.122943388505639
 20
1.404645402543527
 30
0.0
 11
1.122943388505639
 21
1.382645402543527
 31
0.0
  0
LINE
  5
100
330
37
100
AcDbEntity
  8
Visible (ANSI)
100
AcDbLine
 10
1.122943388505638
 20
1.404645402543527
 30
0.0
 11
1.122943388505639
 21
1.832645402543527
 31
0.0
  0
LINE
  5
101
330
37
100
AcDbEntity
  8
Visible (ANSI)
100
AcDbLine
 10
0.6938165985056389
 20
1.832645402543527
 30
0.0
 11
0.6938165985056389
 21
1.742645402543624
 31
0.0
  0
LINE
  5
102
330
37
100
AcDbEntity
  8
Visible (ANSI)
100
AcDbLine
 10
0.6938165985056389
 20
1.742645402543624
 30
0.0
 11
0.693817598505639
 21
1.717645402543527
 31
0.0
  0
LINE
  5
103
330
37
100
AcDbEntity
  8
Visible (ANSI)
100
AcDbLine
 10
0.693817598505639
 20
1.717645402543527
 30
0.0
 11
0.693817598505639
 21
1.617645402543527
 31
0.0
  0
ARC
  5
104
330
37
100
AcDbEntity
  8
Visible (ANSI)
100
AcDbCircle
 10
0.7245675985056391
 20
1.617645402543527
 30
0.0
 40
0.0307500000000001
100
AcDbArc
 50
180.0
 51
269.9999999999998
  0
LINE
  5
105
330
37
100
AcDbEntity
  8
Visible (ANSI)
100
AcDbLine
 10
0.7245675985056389
 20
1.586895402543527
 30
0.0
 11
0.8809918472012082
 21
1.586895402543527
 31
0.0
  0
ARC
  5
106
330
37
100
AcDbEntity
  8
Visible (ANSI)
100
AcDbCircle
 10
0.8855675985056388
 20
1.579145402543527
 30
0.0
 40
0.009
100
AcDbArc
 50
90.0
 51
120.5584317859353
  0
LINE
  5
107
330
37
100
AcDbEntity
  8
Visible (ANSI)
100
AcDbLine
 10
0.8855675985056388
 20
1.588145402543527
 30
0.0
 11
0.8933426487066444
 21
1.588145402543527
 31
0.0
  0
ARC
  5
108
330
37
100
AcDbEntity
  8
Visible (ANSI)
100
AcDbCircle
 10
0.8995675985056386
 20
1.581645402543528
 30
0.0
 40
0.0089999999999998
100
AcDbArc
 50
89.99999999999889
 51
133.7617426926802
  0
LINE
  5
109
330
37
100
AcDbEntity
  8
Visible (ANSI)
100
AcDbLine
 10
0.8995675985056388
 20
1.590645402543527
 30
0.0
 11
0.9064436950812513
 21
1.590645402543527
 31
0.0
  0
ARC
  5
10A
330
37
100
AcDbEntity
  8
Visible (ANSI)
100
AcDbCircle
 10
0.9135675985056387
 20
1.585145402543527
 30
0.0
 40
0.0090000000000001
100
AcDbArc
 50
90.0
 51
142.3301130356697
  0
LINE
  5
10B
330
37
100
AcDbEntity
  8
Visible (ANSI)
100
AcDbLine
 10
0.9135675985056387
 20
1.594145402543527
 30
0.0
 11
0.9209107442561464
 21
1.594145402543527
 31
0.0
  0
ARC
  5
10C
330
37
100
AcDbEntity
  8
Visible (ANSI)
100
AcDbCircle
 10
0.9265675985056386
 20
1.587145402543528
 30
0.0
 40
0.0089999999999997
100
AcDbArc
 50
89.99999999999889
 51
128.9424412689817
  0
LINE
  5
10D
330
37
100
AcDbEntity
  8
Visible (ANSI)
100
AcDbLine
 10
0.9265675985056388
 20
1.596145402543527
 30
0.0
 11
0.9336933885056389
 21
1.596145402543527
 31
0.0
  0
ARC
  5
10E
330
37
100
AcDbEntity
  8
Visible (ANSI)
100
AcDbCircle
 10
0.9336933885056389
 20
1.626895402543527
 30
0.0
 40
0.03075
100
AcDbArc
 50
270.0
 51
0.0
  0
LINE
  5
10F
330
37
100
AcDbEntity
  8
Visible (ANSI)
100
AcDbLine
 10
0.9644433885056388
 20
1.626895402543527
 30
0.0
 11
0.9644433885056388
 21
1.677645402543527
 31
0.0
  0
ARC
  5
110
330
37
100
AcDbEntity
  8
Visible (ANSI)
100
AcDbCircle
 10
1.013693388505638
 20
1.677645402543527
 30
0.0
 40
0.04925
100
AcDbArc
 50
0.0
 51
180.0
  0
LINE
  5
111
330
37
100
AcDbEntity
  8
Visible (ANSI)
100
AcDbLine
 10
1.062943388505638
 20
1.677645402543527
 30
0.0
 11
1.062943388505638
 21
1.404645402543527
 31
0.0
  0
LINE
  5
112
330
37
100
AcDbEntity
  8
Visible (ANSI)
100
AcDbLine
 10
1.062943388505638
 20
1.404645402543527
 30
0.0
 11
1.122943388505638
 21
1.404645402543527
 31
0.0
  0
LINE
  5
113
330
37
100
AcDbEntity
  8
Visible (ANSI)
100
AcDbLine
 10
1.122943388505639
 20
1.832645402543527
 30
0.0
 11
0.6938165985056389
 21
1.832645402543527
 31
0.0
  0
LINE
  5
114
330
37
100
AcDbEntity
  8
Visible (ANSI)
100
AcDbLine
 10
0.9329433885056387
 20
1.401145402543527
 30
0.0
 11
0.9329433885056387
 21
1.382645402543527
 31
0.0
  0
LINE
  5
115
330
37
100
AcDbEntity
  8
Visible (ANSI)
100
AcDbLine
 10
0.9329433885056387
 20
1.382645402543527
 30
0.0
 11
0.9644433885056388
 21
1.382645402543527
 31
0.0
  0
LINE
  5
116
330
37
100
AcDbEntity
  8
Visible (ANSI)
100
AcDbLine
 10
0.9644433885056388
 20
1.382645402543527
 30
0.0
 11
0.9644433885056388
 21
1.528395402543527
 31
0.0
  0
ARC
  5
117
330
37
100
AcDbEntity
  8
Visible (ANSI)
100
AcDbCircle
 10
0.9336933885056389
 20
1.528395402543527
 30
0.0
 40
0.03075
100
AcDbArc
 50
0.0
 51
90.00000000000033
  0
LINE
  5
118
330
37
100
AcDbEntity
  8
Visible (ANSI)
100
AcDbLine
 10
0.9336933885056389
 20
1.559145402543527
 30
0.0
 11
0.9265675985056388
 21
1.559145402543527
 31
0.0
  0
ARC
  5
119
330
37
100
AcDbEntity
  8
Visible (ANSI)
100
AcDbCircle
 10
0.9265675985056388
 20
1.568145402543527
 30
0.0
 40
0.009
100
AcDbArc
 50
231.0575587310187
 51
270.0
  0
LINE
  5
11A
330
37
100
AcDbEntity
  8
Visible (ANSI)
100
AcDbLine
 10
0.9209107442561464
 20
1.561145402543527
 30
0.0
 11
0.9135675985056387
 21
1.561145402543527
 31
0.0
  0
ARC
  5
11B
330
37
100
AcDbEntity
  8
Visible (ANSI)
100
AcDbCircle
 10
0.9135675985056387
 20
1.570145402543527
 30
0.0
 40
0.0090000000000001
100
AcDbArc
 50
217.6698869643303
 51
270.0
  0
LINE
  5
11C
330
37
100
AcDbEntity
  8
Visible (ANSI)
100
AcDbLine
 10
0.9064436950812513
 20
1.564645402543527
 30
0.0
 11
0.8995675985056388
 21
1.564645402543527
 31
0.0
  0
ARC
  5
11D
330
37
100
AcDbEntity
  8
Visible (ANSI)
100
AcDbCircle
 10
0.8995675985056388
 20
1.573645402543527
 30
0.0
 40
0.0089999999999999
100
AcDbArc
 50
226.2382573073197
 51
270.0
  0
LINE
  5
11E
330
37
100
AcDbEntity
  8
Visible (ANSI)
100
AcDbLine
 10
0.8933426487066444
 20
1.567145402543527
 30
0.0
 11
0.8855675985056388
 21
1.567145402543527
 31
0.0
  0
ARC
  5
11F
330
37
100
AcDbEntity
  8
Visible (ANSI)
100
AcDbCircle
 10
0.8855675985056388
 20
1.576145402543527
 30
0.0
 40
0.0089999999999997
100
AcDbArc
 50
239.4415682140636
 51
270.0
  0
LINE
  5
120
330
37
100
AcDbEntity
  8
Visible (ANSI)
100
AcDbLine
 10
0.8809918472012082
 20
1.568395402543527
 30
0.0
 11
0.7245675985056389
 21
1.568395402543527
 31
0.0
  0
ARC
  5
121
330
37
100
AcDbEntity
  8
Visible (ANSI)
100
AcDbCircle
 10
0.7245675985056388
 20
1.617645402543527
 30
0.0
 40
0.0492499999999999
100
AcDbArc
 50
180.0
 51
270.0000000000001
  0
LINE
  5
122
330
37
100
AcDbEntity
  8
Visible (ANSI)
100
AcDbLine
 10
0.6753175985056389
 20
1.617645402543527
 30
0.0
 11
0.6753175985056389
 21
1.717645402543527
 31
0.0
  0
LINE
  5
123
330
37
100
AcDbEntity
  8
Visible (ANSI)
100
AcDbLine
 10
0.6753175985056389
 20
1.717645402543527
 30
0.0
 11
0.6753185985056389
 21
1.742645402542914
 31
0.0
  0
LINE
  5
124
330
37
100
AcDbEntity
  8
Visible (ANSI)
100
AcDbLine
 10
0.6753185985056389
 20
1.742645402542914
 30
0.0
 11
0.6753185985056389
 21
1.832645402543527
 31
0.0
  0
LINE
  5
125
330
37
100
AcDbEntity
  8
Visible (ANSI)
100
AcDbLine
 10
0.6753185985056389
 20
1.832645402543527
 30
0.0
 11
0.222943398505639
 21
1.832645402543527
 31
0.0
  0
LINE
  5
126
330
37
100
AcDbEntity
  8
Visible (ANSI)
100
AcDbLine
 10
0.222943398505639
 20
1.832645402543527
 30
0.0
 11
0.222943398505639
 21
1.382645402543527
 31
0.0
  0
LINE
  5
127
330
37
100
AcDbEntity
  8
Visible (ANSI)
100
AcDbLine
 10
0.222943398505639
 20
1.382645402543527
 30
0.0
 11
0.9144433885056388
 21
1.382645402543527
 31
0.0
  0
LINE
  5
128
330
37
100
AcDbEntity
  8
Visible (ANSI)
100
AcDbLine
 10
0.9144433885056388
 20
1.382645402543527
 30
0.0
 11
0.9144433885056388
 21
1.401145402543527
 31
0.0
  0
LINE
  5
129
330
37
100
AcDbEntity
  8
Visible (ANSI)
100
AcDbLine
 10
0.9144433885056388
 20
1.401145402543527
 30
0.0
 11
0.9329433885056387
 21
1.401145402543527
 31
0.0
  0
LINE
  5
12A
330
37
100
AcDbEntity
  8
Visible (ANSI)
100
AcDbLine
 10
1.122943388505638
 20
1.382645402543527
 30
0.0
 11
1.062943388505638
 21
1.382645402543527
 31
0.0
  0
LINE
  5
12B
330
37
100
AcDbEntity
  8
Visible (ANSI)
100
AcDbLine
 10
1.062943388505638
 20
1.382645402543527
 30
0.0
 11
1.052643388505638
 21
1.382645402543527
 31
0.0
  0
LINE
  5
12C
330
37
100
AcDbEntity
  8
Visible (ANSI)
100
AcDbLine
 10
0.6753185985056389
 20
1.832645402543527
 30
0.0
 11
0.6938165985056389
 21
1.832645402543527
 31
0.0
  0
LINE
  5
12D
330
37
100
AcDbEntity
  8
Visible (ANSI)
100
AcDbLine
 10
1.052643388505638
 20
1.382645402543527
 30
0.0
 11
1.052643388505638
 21
1.391145402543527
 31
0.0
  0
LINE
  5
12E
330
37
100
AcDbEntity
  8
Visible (ANSI)
100
AcDbLine
 10
1.052643388505638
 20
1.391145402543527
 30
0.0
 11
1.047943388505638
 21
1.391145402543527
 31
0.0
  0
ARC
  5
12F
330
37
100
AcDbEntity
  8
Visible (ANSI)
100
AcDbCircle
 10
1.047943388505638
 20
1.394645402543527
 30
0.0
 40
0.0035
100
AcDbArc
 50
180.0
 51
270.0
  0
ARC
  5
130
330
37
100
AcDbEntity
  8
Visible (ANSI)
100
AcDbCircle
 10
1.013693388505638
 20
1.677645402543527
 30
0.0
 40
0.03075
100
AcDbArc
 50
0.0
 51
180.0
  0
LINE
  5
131
330
37
100
AcDbEntity
  8
Visible (ANSI)
100
AcDbLine
 10
0.9829433885056388
 20
1.677645402543527
 30
0.0
 11
0.9829433885056388
 21
1.626895402543527
 31
0.0
  0
ARC
  5
132
330
37
100
AcDbEntity
  8
Visible (ANSI)
100
AcDbCircle
 10
0.9336933885056389
 20
1.626895402543527
 30
0.0
 40
0.04925
100
AcDbArc
 50
281.5657063836212
 51
0.0
  0
LINE
  5
133
330
37
100
AcDbEntity
  8
Visible (ANSI)
100
AcDbLine
 10
0.9435675985056388
 20
1.578645402783155
 30
0.0
 11
0.9435675985056388
 21
1.576645402303899
 31
0.0
  0
ARC
  5
134
330
37
100
AcDbEntity
  8
Visible (ANSI)
100
AcDbCircle
 10
0.9336933885056389
 20
1.528395402543527
 30
0.0
 40
0.04925
100
AcDbArc
 50
0.0
 51
78.4342936163788
  0
LINE
  5
135
330
37
100
AcDbEntity
  8
Visible (ANSI)
100
AcDbLine
 10
0.9829433885056388
 20
1.528395402543527
 30
0.0
 11
0.9829433885056388
 21
1.382645402543527
 31
0.0
  0
LINE
  5
136
330
37
100
AcDbEntity
  8
Visible (ANSI)
100
AcDbLine
 10
0.9829433885056388
 20
1.382645402543527
 30
0.0
 11
0.9644433885056388
 21
1.382645402543527
 31
0.0
  0
LINE
  5
137
330
37
100
AcDbEntity
  8
Visible (ANSI)
100
AcDbLine
 10
1.062943388505638
 20
1.401145402543527
 30
0.0
 11
1.044443388505639
 21
1.401145402543527
 31
0.0
  0
LINE
  5
138
330
37
100
AcDbEntity
  8
Visible (ANSI)
100
AcDbLine
 10
0.9329433885056387
 20
1.382645402543527
 30
0.0
 11
0.9144433885056388
 21
1.382645402543527
 31
0.0
  0
LINE
  5
139
330
37
100
AcDbEntity
  8
Visible (ANSI)
100
AcDbLine
 10
1.062943388505638
 20
1.382645402543527
 30
0.0
 11
1.062943388505638
 21
1.404645402543527
 31
0.0
  0
LINE
  5
13A
330
37
100
AcDbEntity
  8
Visible (ANSI)
100
AcDbLine
 10
1.044443388505639
 20
1.394645402543527
 30
0.0
 11
1.044443388505639
 21
1.677645402543527
 31
0.0
  0
LINE
  5
13B
330
37
100
AcDbEntity
  8
Visible (ANSI)
100
AcDbLine
 10
0.9829433885056388
 20
1.382645402543527
 30
0.0
 11
1.052643388505638
 21
1.382645402543527
 31
0.0
  0
CIRCLE
  5
13C
330
37
100
AcDbEntity
  8
Visible (ANSI)
100
AcDbCircle
 10
0.6845625477056389
 20
1.481640351743527
 30
0.0
 40
0.0445
  0
CIRCLE
  5
13D
330
37
100
AcDbEntity
  8
Visible (ANSI)
100
AcDbCircle
 10
0.4865726493056389
 20
1.481640351743527
 30
0.0
 40
0.0445
  0
CIRCLE
  5
13E
330
37
100
AcDbEntity
  8
Visible (ANSI)
100
AcDbCircle
 10
0.8835675985056388
 20
1.729645402543527
 30
0.0
 40
0.043
  0
CIRCLE
  5
13F
330
37
100
AcDbEntity
  8
Visible (ANSI)
100
AcDbCircle
 10
0.8835675985056388
 20
1.729645402543527
 30
0.0
 40
0.046
  0
CIRCLE
  5
140
330
37
100
AcDbEntity
  8
Visible (ANSI)
100
AcDbCircle
 10
0.6845625477056389
 20
1.481640351743527
 30
0.0
 40
0.0475
  0
CIRCLE
  5
141
330
37
100
AcDbEntity
  8
Visible (ANSI)
100
AcDbCircle
 10
0.4865726493056389
 20
1.481640351743527
 30
0.0
 40
0.0475
  0
CIRCLE
  5
142
330
37
100
AcDbEntity
  8
Visible (ANSI)
100
AcDbCircle
 10
0.3375827985056389
 20
1.729645402543527
 30
0.0
 40
0.046
  0
CIRCLE
  5
143
330
37
100
AcDbEntity
  8
Visible (ANSI)
100
AcDbCircle
 10
0.8835675985056388
 20
1.482645402543527
 30
0.0
 40
0.05
  0
CIRCLE
  5
144
330
37
100
AcDbEntity
  8
Visible (ANSI)
100
AcDbCircle
 10
0.4775675985056389
 20
1.632645402543527
 30
0.0
 40
0.05
  0
CIRCLE
  5
145
330
37
100
AcDbEntity
  8
Visible (ANSI)
100
AcDbCircle
 10
0.4775675985056389
 20
1.632645402543527
 30
0.0
 40
0.047
  0
CIRCLE
  5
146
330
37
100
AcDbEntity
  8
Visible (ANSI)
100
AcDbCircle
 10
0.3375827985056389
 20
1.729645402543527
 30
0.0
 40
0.043
  0
CIRCLE
  5
147
330
37
100
AcDbEntity
  8
Visible (ANSI)
100
AcDbCircle
 10
0.8835675985056388
 20
1.482645402543527
 30
0.0
 40
0.047
  0
LINE
  5
148
330
37
100
AcDbEntity
  8
Visible (ANSI)
100
AcDbLine
 10
0.8729433866292277
 20
1.697737355107737
 30
0.0
 11
0.872903223893191
 21
1.697888173632135
 31
0.0
  0
CIRCLE
  5
149
330
37
100
AcDbEntity
  8
Hidden Narrow (ANSI)
 48
1.066956043243408
100
AcDbCircle
 10
0.8835675985056388
 20
1.729645402543527
 30
0.0
 40
0.05265
  0
CIRCLE
  5
14A
330
37
100
AcDbEntity
  8
Hidden Narrow (ANSI)
 48
1.066956043243408
100
AcDbCircle
 10
0.3375827985056389
 20
1.729645402543527
 30
0.0
 40
0.05265
  0
LINE
  5
14B
330
37
100
AcDbEntity
  8
Visible (ANSI)
100
AcDbLine
 10
1.11998152327404
 20
0.8446014196508924
 30
0.0
 11
1.11998152327404
 21
0.8226014196508925
 31
0.0
  0
LINE
  5
14C
330
37
100
AcDbEntity
  8
Visible (ANSI)
100
AcDbLine
 10
1.11998152327404
 20
0.8226014196508925
 30
0.0
 11
1.11998152327404
 21
0.3946014196508926
 31
0.0
  0
LINE
  5
14D
330
37
100
AcDbEntity
  8
Visible (ANSI)
100
AcDbLine
 10
0.5733567332740403
 20
0.3946014196508926
 30
0.0
 11
0.2199815332740405
 21
0.3946014196508926
 31
0.0
  0
LINE
  5
14E
330
37
100
AcDbEntity
  8
Visible (ANSI)
100
AcDbLine
 10
1.11998152327404
 20
0.3946014196508926
 30
0.0
 11
0.5918547332740404
 21
0.3946014196508926
 31
0.0
  0
LINE
  5
14F
330
37
100
AcDbEntity
  8
Visible (ANSI)
100
AcDbLine
 10
0.5918547332740404
 20
0.3946014196508926
 30
0.0
 11
0.5733567332740403
 21
0.3946014196508926
 31
0.0
  0
LINE
  5
150
330
37
100
AcDbEntity
  8
Visible (ANSI)
100
AcDbLine
 10
1.04968152327404
 20
0.8446014196508924
 30
0.0
 11
1.05998152327404
 21
0.8446014196508924
 31
0.0
  0
LINE
  5
151
330
37
100
AcDbEntity
  8
Visible (ANSI)
100
AcDbLine
 10
1.05998152327404
 20
0.8446014196508924
 30
0.0
 11
1.11998152327404
 21
0.8446014196508924
 31
0.0
  0
LINE
  5
152
330
37
100
AcDbEntity
  8
Visible (ANSI)
100
AcDbLine
 10
0.9299815232740403
 20
0.8446014196508924
 30
0.0
 11
0.9614815232740403
 21
0.8446014196508924
 31
0.0
  0
LINE
  5
153
330
37
100
AcDbEntity
  8
Visible (ANSI)
100
AcDbLine
 10
0.2199815332740405
 20
0.8446014196508924
 30
0.0
 11
0.9114815232740401
 21
0.8446014196508924
 31
0.0
  0
LINE
  5
154
330
37
100
AcDbEntity
  8
Visible (ANSI)
100
AcDbLine
 10
0.9114815232740404
 20
0.8446014196508924
 30
0.0
 11
0.9299815232740403
 21
0.8446014196508924
 31
0.0
  0
LINE
  5
155
330
37
100
AcDbEntity
  8
Visible (ANSI)
100
AcDbLine
 10
0.9114815232740404
 20
0.6988514196508926
 30
0.0
 11
0.9114815232740404
 21
0.8446014196508924
 31
0.0
  0
LINE
  5
156
330
37
100
AcDbEntity
  8
Visible (ANSI)
100
AcDbLine
 10
0.2199815332740405
 20
0.8446014196508924
 30
0.0
 11
0.2199815332740405
 21
0.3946014196508926
 31
0.0
  0
LINE
  5
157
330
37
100
AcDbEntity
  8
Visible (ANSI)
100
AcDbLine
 10
0.5733567332740403
 20
0.3946014196508926
 30
0.0
 11
0.5733567332740403
 21
0.4846014196515063
 31
0.0
  0
LINE
  5
158
330
37
100
AcDbEntity
  8
Visible (ANSI)
100
AcDbLine
 10
0.5733567332740403
 20
0.4846014196515063
 30
0.0
 11
0.5733557332740404
 21
0.5096014196508925
 31
0.0
  0
LINE
  5
159
330
37
100
AcDbEntity
  8
Visible (ANSI)
100
AcDbLine
 10
0.5733557332740404
 20
0.5096014196508925
 30
0.0
 11
0.5733557332740404
 21
0.6096014196508925
 31
0.0
  0
ARC
  5
15A
330
37
100
AcDbEntity
  8
Visible (ANSI)
100
AcDbCircle
 10
0.6226057332740403
 20
0.6096014196508927
 30
0.0
 40
0.0492499999999999
100
AcDbArc
 50
89.99999999999991
 51
180.0
  0
LINE
  5
15B
330
37
100
AcDbEntity
  8
Visible (ANSI)
100
AcDbLine
 10
0.6226057332740404
 20
0.6588514196508926
 30
0.0
 11
0.8280299819696095
 21
0.6588514196508926
 31
0.0
  0
ARC
  5
15C
330
37
100
AcDbEntity
  8
Visible (ANSI)
100
AcDbCircle
 10
0.8326057332740401
 20
0.6511014196508929
 30
0.0
 40
0.0089999999999997
100
AcDbArc
 50
89.99999999999889
 51
120.5584317859351
  0
LINE
  5
15D
330
37
100
AcDbEntity
  8
Visible (ANSI)
100
AcDbLine
 10
0.8326057332740404
 20
0.6601014196508926
 30
0.0
 11
0.8403807834750459
 21
0.6601014196508926
 31
0.0
  0
ARC
  5
15E
330
37
100
AcDbEntity
  8
Visible (ANSI)
100
AcDbCircle
 10
0.8466057332740403
 20
0.6536014196508927
 30
0.0
 40
0.009
100
AcDbArc
 50
90.0
 51
133.7617426926803
  0
LINE
  5
15F
330
37
100
AcDbEntity
  8
Visible (ANSI)
100
AcDbLine
 10
0.8466057332740403
 20
0.6626014196508926
 30
0.0
 11
0.8534818298496528
 21
0.6626014196508926
 31
0.0
  0
ARC
  5
160
330
37
100
AcDbEntity
  8
Visible (ANSI)
100
AcDbCircle
 10
0.8606057332740403
 20
0.6571014196508925
 30
0.0
 40
0.0090000000000001
100
AcDbArc
 50
90.0
 51
142.3301130356701
  0
LINE
  5
161
330
37
100
AcDbEntity
  8
Visible (ANSI)
100
AcDbLine
 10
0.8606057332740403
 20
0.6661014196508927
 30
0.0
 11
0.8679488790245478
 21
0.6661014196508927
 31
0.0
  0
ARC
  5
162
330
37
100
AcDbEntity
  8
Visible (ANSI)
100
AcDbCircle
 10
0.8736057332740402
 20
0.6591014196508925
 30
0.0
 40
0.009
100
AcDbArc
 50
90.0
 51
128.9424412689812
  0
LINE
  5
163
330
37
100
AcDbEntity
  8
Visible (ANSI)
100
AcDbLine
 10
0.8736057332740402
 20
0.6681014196508926
 30
0.0
 11
0.8807315232740402
 21
0.6681014196508926
 31
0.0
  0
ARC
  5
164
330
37
100
AcDbEntity
  8
Visible (ANSI)
100
AcDbCircle
 10
0.8807315232740403
 20
0.6988514196508925
 30
0.0
 40
0.03075
100
AcDbArc
 50
270.0
 51
0.0
  0
LINE
  5
165
330
37
100
AcDbEntity
  8
Visible (ANSI)
100
AcDbLine
 10
0.5918547332740404
 20
0.4846014196515063
 30
0.0
 11
0.5918547332740404
 21
0.3946014196508926
 31
0.0
  0
LINE
  5
166
330
37
100
AcDbEntity
  8
Visible (ANSI)
100
AcDbLine
 10
1.11998152327404
 20
0.8226014196508925
 30
0.0
 11
1.05998152327404
 21
0.8226014196508925
 31
0.0
  0
LINE
  5
167
330
37
100
AcDbEntity
  8
Visible (ANSI)
100
AcDbLine
 10
1.05998152327404
 20
0.8226014196508925
 30
0.0
 11
1.05998152327404
 21
0.5496014196508927
 31
0.0
  0
ARC
  5
168
330
37
100
AcDbEntity
  8
Visible (ANSI)
100
AcDbCircle
 10
0.9857315232740402
 20
0.5496014196508927
 30
0.0
 40
0.07425
100
AcDbArc
 50
180.0
 51
0.0
  0
LINE
  5
169
330
37
100
AcDbEntity
  8
Visible (ANSI)
100
AcDbLine
 10
0.9114815232740404
 20
0.5496014196508927
 30
0.0
 11
0.9114815232740404
 21
0.6003514196508926
 31
0.0
  0
ARC
  5
16A
330
37
100
AcDbEntity
  8
Visible (ANSI)
100
AcDbCircle
 10
0.8807315232740402
 20
0.6003514196508925
 30
0.0
 40
0.03075
100
AcDbArc
 50
0.0
 51
89.99999999999969
  0
LINE
  5
16B
330
37
100
AcDbEntity
  8
Visible (ANSI)
100
AcDbLine
 10
0.8807315232740402
 20
0.6311014196508927
 30
0.0
 11
0.8736057332740402
 21
0.6311014196508927
 31
0.0
  0
ARC
  5
16C
330
37
100
AcDbEntity
  8
Visible (ANSI)
100
AcDbCircle
 10
0.8736057332740402
 20
0.6401014196508923
 30
0.0
 40
0.0089999999999997
100
AcDbArc
 50
231.0575587310194
 51
270.0000000000011
  0
LINE
  5
16D
330
37
100
AcDbEntity
  8
Visible (ANSI)
100
AcDbLine
 10
0.8679488790245478
 20
0.6331014196508927
 30
0.0
 11
0.8606057332740403
 21
0.6331014196508927
 31
0.0
  0
ARC
  5
16E
330
37
100
AcDbEntity
  8
Visible (ANSI)
100
AcDbCircle
 10
0.8606057332740403
 20
0.6421014196508926
 30
0.0
 40
0.0090000000000001
100
AcDbArc
 50
217.6698869643314
 51
270.0
  0
LINE
  5
16F
330
37
100
AcDbEntity
  8
Visible (ANSI)
100
AcDbLine
 10
0.8534818298496528
 20
0.6366014196508926
 30
0.0
 11
0.8466057332740403
 21
0.6366014196508926
 31
0.0
  0
ARC
  5
170
330
37
100
AcDbEntity
  8
Visible (ANSI)
100
AcDbCircle
 10
0.8466057332740405
 20
0.6456014196508928
 30
0.0
 40
0.0090000000000003
100
AcDbArc
 50
226.2382573073213
 51
269.9999999999989
  0
LINE
  5
171
330
37
100
AcDbEntity
  8
Visible (ANSI)
100
AcDbLine
 10
0.8403807834750459
 20
0.6391014196508925
 30
0.0
 11
0.8326057332740404
 21
0.6391014196508925
 31
0.0
  0
ARC
  5
172
330
37
100
AcDbEntity
  8
Visible (ANSI)
100
AcDbCircle
 10
0.8326057332740404
 20
0.6481014196508927
 30
0.0
 40
0.009
100
AcDbArc
 50
239.4415682140647
 51
270.0
  0
LINE
  5
173
330
37
100
AcDbEntity
  8
Visible (ANSI)
100
AcDbLine
 10
0.8280299819696095
 20
0.6403514196508926
 30
0.0
 11
0.6226057332740404
 21
0.6403514196508926
 31
0.0
  0
ARC
  5
174
330
37
100
AcDbEntity
  8
Visible (ANSI)
100
AcDbCircle
 10
0.6226057332740405
 20
0.6096014196508925
 30
0.0
 40
0.03075
100
AcDbArc
 50
90.00000000000017
 51
180.0
  0
LINE
  5
175
330
37
100
AcDbEntity
  8
Visible (ANSI)
100
AcDbLine
 10
0.5918557332740403
 20
0.6096014196508925
 30
0.0
 11
0.5918557332740403
 21
0.5096014196508925
 31
0.0
  0
LINE
  5
176
330
37
100
AcDbEntity
  8
Visible (ANSI)
100
AcDbLine
 10
0.5918557332740403
 20
0.5096014196508925
 30
0.0
 11
0.5918547332740404
 21
0.4846014196515063
 31
0.0
  0
LINE
  5
177
330
37
100
AcDbEntity
  8
Visible (ANSI)
100
AcDbLine
 10
1.04498152327404
 20
0.8361014196508925
 30
0.0
 11
1.04968152327404
 21
0.8361014196508925
 31
0.0
  0
LINE
  5
178
330
37
100
AcDbEntity
  8
Visible (ANSI)
100
AcDbLine
 10
1.04968152327404
 20
0.8361014196508925
 30
0.0
 11
1.04968152327404
 21
0.8446014196508924
 31
0.0
  0
LINE
  5
179
330
37
100
AcDbEntity
  8
Visible (ANSI)
100
AcDbLine
 10
0.9614815232740403
 20
0.8446014196508924
 30
0.0
 11
0.9799815232740403
 21
0.8446014196508924
 31
0.0
  0
LINE
  5
17A
330
37
100
AcDbEntity
  8
Visible (ANSI)
100
AcDbLine
 10
0.9799815232740403
 20
0.8446014196508924
 30
0.0
 11
0.9799815232740403
 21
0.8261014196508925
 31
0.0
  0
LINE
  5
17B
330
37
100
AcDbEntity
  8
Visible (ANSI)
100
AcDbLine
 10
0.9799815232740403
 20
0.8261014196508925
 30
0.0
 11
0.9614815232740403
 21
0.8261014196508925
 31
0.0
  0
LINE
  5
17C
330
37
100
AcDbEntity
  8
Visible (ANSI)
100
AcDbLine
 10
1.05998152327404
 20
0.8261014196508925
 30
0.0
 11
1.04148152327404
 21
0.8261014196508925
 31
0.0
  0
LINE
  5
17D
330
37
100
AcDbEntity
  8
Visible (ANSI)
100
AcDbLine
 10
0.9614815232740403
 20
0.8261014196508925
 30
0.0
 11
0.9614815232740403
 21
0.8446014196508924
 31
0.0
  0
ARC
  5
17E
330
37
100
AcDbEntity
  8
Visible (ANSI)
100
AcDbCircle
 10
1.04498152327404
 20
0.8326014196508925
 30
0.0
 40
0.0035
100
AcDbArc
 50
90.0
 51
180.0
  0
ARC
  5
17F
330
37
100
AcDbEntity
  8
Visible (ANSI)
100
AcDbCircle
 10
0.9857315232740402
 20
0.5496014196508927
 30
0.0
 40
0.05575
100
AcDbArc
 50
180.0
 51
0.0
  0
LINE
  5
180
330
37
100
AcDbEntity
  8
Visible (ANSI)
100
AcDbLine
 10
0.9299815232740403
 20
0.6003514196508926
 30
0.0
 11
0.9299815232740403
 21
0.5496014196508927
 31
0.0
  0
ARC
  5
181
330
37
100
AcDbEntity
  8
Visible (ANSI)
100
AcDbCircle
 10
0.8807315232740402
 20
0.6003514196508926
 30
0.0
 40
0.04925
100
AcDbArc
 50
0.0
 51
78.43429361637882
  0
LINE
  5
182
330
37
100
AcDbEntity
  8
Visible (ANSI)
100
AcDbLine
 10
0.8906057332740402
 20
0.6506014198905206
 30
0.0
 11
0.8906057332740402
 21
0.6486014194112646
 31
0.0
  0
ARC
  5
183
330
37
100
AcDbEntity
  8
Visible (ANSI)
100
AcDbCircle
 10
0.8807315232740402
 20
0.6988514196508926
 30
0.0
 40
0.04925
100
AcDbArc
 50
281.5657063836212
 51
0.0
  0
LINE
  5
184
330
37
100
AcDbEntity
  8
Visible (ANSI)
100
AcDbLine
 10
0.9299815232740403
 20
0.8446014196508924
 30
0.0
 11
0.9299815232740403
 21
0.6988514196508926
 31
0.0
  0
LINE
  5
185
330
37
100
AcDbEntity
  8
Visible (ANSI)
100
AcDbLine
 10
1.05998152327404
 20
0.8226014196508925
 30
0.0
 11
1.05998152327404
 21
0.8446014196508924
 31
0.0
  0
LINE
  5
186
330
37
100
AcDbEntity
  8
Visible (ANSI)
100
AcDbLine
 10
1.04148152327404
 20
0.5496014196508927
 30
0.0
 11
1.04148152327404
 21
0.8326014196508925
 31
0.0
  0
LINE
  5
187
330
37
100
AcDbEntity
  8
Visible (ANSI)
100
AcDbLine
 10
0.9799815232740403
 20
0.8446014196508924
 30
0.0
 11
1.04968152327404
 21
0.8446014196508924
 31
0.0
  0
CIRCLE
  5
188
330
37
100
AcDbEntity
  8
Visible (ANSI)
100
AcDbCircle
 10
0.5826107840740403
 20
0.7456064704508926
 30
0.0
 40
0.0445
  0
CIRCLE
  5
189
330
37
100
AcDbEntity
  8
Visible (ANSI)
100
AcDbCircle
 10
0.5826107840740403
 20
0.7456064704508926
 30
0.0
 40
0.0475
  0
CIRCLE
  5
18A
330
37
100
AcDbEntity
  8
Visible (ANSI)
100
AcDbCircle
 10
0.7806006824740404
 20
0.7456064704508926
 30
0.0
 40
0.0475
  0
CIRCLE
  5
18B
330
37
100
AcDbEntity
  8
Visible (ANSI)
100
AcDbCircle
 10
0.3646209332740404
 20
0.4766014196508926
 30
0.0
 40
0.05
  0
CIRCLE
  5
18C
330
37
100
AcDbEntity
  8
Visible (ANSI)
100
AcDbCircle
 10
0.3346209332740402
 20
0.7456064696508925
 30
0.0
 40
0.046
  0
CIRCLE
  5
18D
330
37
100
AcDbEntity
  8
Visible (ANSI)
100
AcDbCircle
 10
0.7806006824740404
 20
0.7456064704508926
 30
0.0
 40
0.0445
  0
CIRCLE
  5
18E
330
37
100
AcDbEntity
  8
Visible (ANSI)
100
AcDbCircle
 10
0.3346209332740402
 20
0.7456064696508925
 30
0.0
 40
0.043
  0
CIRCLE
  5
18F
330
37
100
AcDbEntity
  8
Visible (ANSI)
100
AcDbCircle
 10
0.3646209332740404
 20
0.4766014196508926
 30
0.0
 40
0.047
  0
CIRCLE
  5
190
330
37
100
AcDbEntity
  8
Visible (ANSI)
100
AcDbCircle
 10
0.7806006332740403
 20
0.5546014196508926
 30
0.0
 40
0.043
  0
CIRCLE
  5
191
330
37
100
AcDbEntity
  8
Visible (ANSI)
100
AcDbCircle
 10
0.7806006332740403
 20
0.5546014196508926
 30
0.0
 40
0.046
  0
CIRCLE
  5
192
330
37
100
AcDbEntity
  8
Visible (ANSI)
100
AcDbCircle
 10
0.8566057332740403
 20
0.4766014196508926
 30
0.0
 40
0.05
  0
CIRCLE
  5
193
330
37
100
AcDbEntity
  8
Visible (ANSI)
100
AcDbCircle
 10
0.8566057332740403
 20
0.4766014196508926
 30
0.0
 40
0.047
  0
CIRCLE
  5
194
330
37
100
AcDbEntity
  8
Hidden Narrow (ANSI)
 48
1.066956043243408
100
AcDbCircle
 10
0.3346209332740402
 20
0.7456064696508925
 30
0.0
 40
0.05265
  0
CIRCLE
  5
195
330
37
100
AcDbEntity
  8
Hidden Narrow (ANSI)
 48
1.066956043243408
100
AcDbCircle
 10
0.7806006332740403
 20
0.5546014196508926
 30
0.0
 40
0.05265
  0
INSERT
  5
1BC
330
37
100
AcDbEntity
  8
Dimension (ANSI)
100
AcDbBlockReference
  2
Origin Indicator Symbol2
 10
0.0
 20
0.0
 30
0.0
 41
0.25
 42
0.25
 43
0.25
  0
INSERT
  5
249
330
37
100
AcDbEntity
  8
Symbol (ANSI)
100
AcDbBlockReference
  2
Hole Table2
 10
0.0
 20
0.0
 30
0.0
 41
0.25
 42
0.25
 43
0.25
  0
INSERT
  5
270
330
37
100
AcDbEntity
  8
Dimension (ANSI)
100
AcDbBlockReference
  2
Origin Indicator Symbol3
 10
0.0
 20
0.0
 30
0.0
 41
0.25
 42
0.25
 43
0.25
  0
INSERT
  5
2FB
330
37
100
AcDbEntity
  8
Symbol (ANSI)
100
AcDbBlockReference
  2
Hole Table3
 10
0.0
 20
0.0
 30
0.0
 41
0.25
 42
0.25
 43
0.25
  0
MTEXT
  5
2FC
330
37
100
AcDbEntity
  8
Symbol (ANSI)
100
AcDbMText
 10
2.416091127157918
 20
0.1949240214131829
 30
0.0
 40
0.0300000003707691
 41
0.0
 71
     1
 72
     1
  1
{B2}
  7
Note Text (ANSI)
 73
     1
 44
1.0
1001
ACAD
1000
MTEXTBEGIN
1070
    73
1070
     1
1070
    44
1040
1.0
1070
    74
1070
     0
1000
MTEXTEND
  0
INSERT
  5
30E
330
37
100
AcDbEntity
  8
Symbol (ANSI)
100
AcDbBlockReference
  2
Leader Text3
 10
0.0
 20
0.0
 30
0.0
 41
0.25
 42
0.25
 43
0.25
  0
INSERT
  5
320
330
37
100
AcDbEntity
  8
Symbol (ANSI)
100
AcDbBlockReference
  2
Leader Text4
 10
0.0
 20
0.0
 30
0.0
 41
0.25
 42
0.25
 43
0.25
  0
INSERT
  5
332
330
37
100
AcDbEntity
  8
Symbol (ANSI)
100
AcDbBlockReference
  2
Leader Text5
 10
0.0
 20
0.0
 30
0.0
 41
0.25
 42
0.25
 43
0.25
  0
INSERT
  5
344
330
37
100
AcDbEntity
  8
Symbol (ANSI)
100
AcDbBlockReference
  2
Leader Text6
 10
0.0
 20
0.0
 30
0.0
 41
0.25
 42
0.25
 43
0.25
  0
INSERT
  5
356
330
37
100
AcDbEntity
  8
Symbol (ANSI)
100
AcDbBlockReference
  2
Leader Text7
 10
0.0
 20
0.0
 30
0.0
 41
0.25
 42
0.25
 43
0.25
  0
INSERT
  5
368
330
37
100
AcDbEntity
  8
Symbol (ANSI)
100
AcDbBlockReference
  2
Leader Text8
 10
0.0
 20
0.0
 30
0.0
 41
0.25
 42
0.25
 43
0.25
  0
INSERT
  5
37A
330
37
100
AcDbEntity
  8
Symbol (ANSI)
100
AcDbBlockReference
  2
Leader Text9
 10
0.0
 20
0.0
 30
0.0
 41
0.25
 42
0.25
 43
0.25
  0
INSERT
  5
38C
330
37
100
AcDbEntity
  8
Symbol (ANSI)
100
AcDbBlockReference
  2
Leader Text10
 10
0.0
 20
0.0
 30
0.0
 41
0.25
 42
0.25
 43
0.25
  0
MTEXT
  5
38D
330
37
100
AcDbEntity
  8
Symbol (ANSI)
100
AcDbMText
 10
2.218749973204104
 20
1.979561606956343
 30
0.0
 40
0.0300000003707691
 41
0.311572110559058
 71
     1
 72
     1
  1
{2 OF 4 (BLOCK2)}
  7
Note Text (ANSI)
 73
     1
 44
1.0
1001
ACAD
1000
MTEXTBEGIN
1070
    73
1070
     1
1070
    44
1040
1.0
1070
    74
1070
     0
1000
MTEXTEND
  0
INSERT
  5
39F
330
37
100
AcDbEntity
  8
Symbol (ANSI)
100
AcDbBlockReference
  2
Leader Text11
 10
0.0
 20
0.0
 30
0.0
 41
0.25
 42
0.25
 43
0.25
  0
INSERT
  5
3B1
330
37
100
AcDbEntity
  8
Symbol (ANSI)
100
AcDbBlockReference
  2
Leader Text12
 10
0.0
 20
0.0
 30
0.0
 41
0.25
 42
0.25
 43
0.25
  0
INSERT
  5
3C3
330
37
100
AcDbEntity
  8
Symbol (ANSI)
100
AcDbBlockReference
  2
Leader Text13
 10
0.0
 20
0.0
 30
0.0
 41
0.25
 42
0.25
 43
0.25
  0
INSERT
  5
3D5
330
37
100
AcDbEntity
  8
Symbol (ANSI)
100
AcDbBlockReference
  2
Leader Text14
 10
0.0
 20
0.0
 30
0.0
 41
0.25
 42
0.25
 43
0.25
  0
ENDSEC
  0
SECTION
  2
OBJECTS
  0
DICTIONARY
  5
C
330
0
100
AcDbDictionary
281
     1
  3
ACAD_COLOR
350
30
  3
ACAD_GROUP
350
D
  3
ACAD_LAYOUT
350
2F
  3
ACAD_MATERIAL
350
10
  3
ACAD_MLINESTYLE
350
2C
  3
ACAD_PLOTSETTINGS
350
2E
  3
ACAD_PLOTSTYLENAME
350
E
  3
ACAD_TABLESTYLE
350
31
  3
ACAD_VISUALSTYLE
350
14
  3
AcDbVariableDictionary
350
3D6
  3
DWGPROPS
350
3DC
  0
DICTIONARY
  5
30
102
{ACAD_REACTORS
330
C
102
}
330
C
100
AcDbDictionary
281
     1
  0
DICTIONARY
  5
D
102
{ACAD_REACTORS
330
C
102
}
330
C
100
AcDbDictionary
281
     1
  0
DICTIONARY
  5
2F
102
{ACAD_REACTORS
330
C
102
}
330
C
100
AcDbDictionary
281
     1
  3
Layout1
350
36
  3
Layout2
350
3E
  3
Model
350
3A
  0
DICTIONARY
  5
10
102
{ACAD_REACTORS
330
C
102
}
330
C
100
AcDbDictionary
281
     1
  3
ByBlock
350
12
  3
ByLayer
350
11
  3
Global
350
13
  0
DICTIONARY
  5
2C
102
{ACAD_REACTORS
330
C
102
}
330
C
100
AcDbDictionary
281
     1
  3
Standard
350
2D
  0
DICTIONARY
  5
2E
102
{ACAD_REACTORS
330
C
102
}
330
C
100
AcDbDictionary
281
     1
  0
ACDBDICTIONARYWDFLT
  5
E
102
{ACAD_REACTORS
330
C
102
}
330
C
100
AcDbDictionary
281
     1
  3
Normal
350
F
100
AcDbDictionaryWithDefault
340
F
  0
DICTIONARY
  5
31
102
{ACAD_REACTORS
330
C
102
}
330
C
100
AcDbDictionary
281
     1
  3
Standard
350
32
  0
DICTIONARY
  5
14
102
{ACAD_REACTORS
330
C
102
}
330
C
100
AcDbDictionary
281
     1
  3
2dWireframe
350
1A
  3
3D Hidden
350
1C
  3
3dWireframe
350
1B
  3
Basic
350
19
  3
Brighten
350
20
  3
ColorChange
350
24
  3
Conceptual
350
1D
  3
Dim
350
1F
  3
Facepattern
350
23
  3
Flat
350
15
  3
FlatWithEdges
350
16
  3
Gouraud
350
17
  3
GouraudWithEdges
350
18
  3
Linepattern
350
22
  3
Realistic
350
1E
  3
Thicken
350
21
  0
DICTIONARY
  5
3D6
102
{ACAD_REACTORS
330
C
102
}
330
C
100
AcDbDictionary
281
     1
  3
CTABLESTYLE
350
3D7
  3
DIMASSOC
350
3DB
  3
HIDETEXT
350
3DA
  3
INDEXCTL
350
3D9
  3
SORTENTS
350
3D8
  0
XRECORD
  5
3DC
102
{ACAD_REACTORS
330
C
102
}
330
C
100
AcDbXrecord
280
     1
  1
DWGPROPS COOKIE
  2

  3

  4
Da Chow
  6

  7

  8

  9

300
Manager=
301
Company=RADIO ASTRONOMY LABORATORY
302
Category=
303
Part Number=Block2-V61
304
Description=
305
Project=
306
Designer=Da Chow
307
Engineer=
308
Authority=
309
Cost Center=
 40
0.0000273148148148
 41
2454846.692887361
 42
2454846.692887361
  1

 90
       17
300
Vendor=
300
User Status=REV
300
Design Status=WorkInProgress
300
Checked by=
300
Date Checked=01/14/2009
300
Engr Approved by=
300
Mfg Approved by=
  0
LAYOUT
  5
36
102
{ACAD_XDICTIONARY
360
3E5
102
}
102
{ACAD_REACTORS
330
2F
102
}
330
2F
100
AcDbPlotSettings
  1

  2

  4

  6

 40
0.0
 41
0.0
 42
0.0
 43
0.0
 44
0.0
 45
0.0
 46
0.0
 47
0.0
 48
0.0
 49
0.0
140
0.0
141
0.0
142
1.0
143
1.0
 70
   688
 72
     0
 73
     0
 74
     5
  7

 75
    16
147
1.0
148
0.0
149
0.0
100
AcDbLayout
  1
Layout1
 70
     1
 71
     1
 10
0.0
 20
0.0
 11
12.0
 21
9.0
 12
0.0
 22
0.0
 32
0.0
 14
0.0
 24
0.0
 34
0.0
 15
0.0
 25
0.0
 35
0.0
146
0.0
 13
0.0
 23
0.0
 33
0.0
 16
1.0
 26
0.0
 36
0.0
 17
0.0
 27
1.0
 37
0.0
 76
     0
330
33
  0
LAYOUT
  5
3E
102
{ACAD_XDICTIONARY
360
3E9
102
}
102
{ACAD_REACTORS
330
2F
102
}
330
2F
100
AcDbPlotSettings
  1

  2

  4

  6

 40
0.0
 41
0.0
 42
0.0
 43
0.0
 44
0.0
 45
0.0
 46
0.0
 47
0.0
 48
0.0
 49
0.0
140
0.0
141
0.0
142
1.0
143
1.0
 70
   688
 72
     0
 73
     0
 74
     5
  7

 75
    16
147
1.0
148
0.0
149
0.0
100
AcDbLayout
  1
Layout2
 70
     1
 71
     2
 10
0.0
 20
0.0
 11
12.0
 21
9.0
 12
0.0
 22
0.0
 32
0.0
 14
0.0
 24
0.0
 34
0.0
 15
0.0
 25
0.0
 35
0.0
146
0.0
 13
0.0
 23
0.0
 33
0.0
 16
1.0
 26
0.0
 36
0.0
 17
0.0
 27
1.0
 37
0.0
 76
     0
330
3B
  0
LAYOUT
  5
3A
102
{ACAD_XDICTIONARY
360
3E7
102
}
102
{ACAD_REACTORS
330
2F
102
}
330
2F
100
AcDbPlotSettings
  1

  2

  4

  6

 40
0.0
 41
0.0
 42
0.0
 43
0.0
 44
0.0
 45
0.0
 46
0.0
 47
0.0
 48
0.0
 49
0.0
140
0.0
141
0.0
142
1.0
143
1.0
 70
  1712
 72
     0
 73
     0
 74
     0
  7

 75
     0
147
1.0
148
0.0
149
0.0
100
AcDbLayout
  1
Model
 70
     1
 71
     0
 10
0.0
 20
0.0
 11
12.0
 21
9.0
 12
0.0
 22
0.0
 32
0.0
 14
0.0
 24
0.0
 34
0.0
 15
0.0
 25
0.0
 35
0.0
146
0.0
 13
0.0
 23
0.0
 33
0.0
 16
1.0
 26
0.0
 36
0.0
 17
0.0
 27
1.0
 37
0.0
 76
     0
330
37
  0
MATERIAL
  5
12
102
{ACAD_XDICTIONARY
360
3DF
102
}
102
{ACAD_REACTORS
330
10
102
}
330
10
100
AcDbMaterial
  1
ByBlock
  0
MATERIAL
  5
11
102
{ACAD_XDICTIONARY
360
3DD
102
}
102
{ACAD_REACTORS
330
10
102
}
330
10
100
AcDbMaterial
  1
ByLayer
  0
MATERIAL
  5
13
102
{ACAD_XDICTIONARY
360
3E1
102
}
102
{ACAD_REACTORS
330
10
102
}
330
10
100
AcDbMaterial
  1
Global
  0
MLINESTYLE
  5
2D
102
{ACAD_REACTORS
330
2C
102
}
330
2C
100
AcDbMlineStyle
  2
STANDARD
 70
     0
  3

 62
   256
 51
90.0
 52
90.0
 71
     2
 49
0.5
 62
   256
  6
BYLAYER
 49
-0.5
 62
   256
  6
BYLAYER
  0
ACDBPLACEHOLDER
  5
F
102
{ACAD_REACTORS
330
E
102
}
330
E
  0
TABLESTYLE
  5
32
102
{ACAD_XDICTIONARY
360
3E3
102
}
102
{ACAD_REACTORS
330
31
102
}
330
31
100
AcDbTableStyle
  3
Standard
 70
     0
 71
     0
 40
0.06
 41
0.06
280
     0
281
     0
  7
Standard
140
0.18
170
     2
 62
     0
 63
     7
283
     0
274
    -2
284
     1
 64
     0
275
    -2
285
     1
 65
     0
276
    -2
286
     1
 66
     0
277
    -2
287
     1
 67
     0
278
    -2
288
     1
 68
     0
279
    -2
289
     1
 69
     0
  7
Standard
140
0.25
170
     5
 62
     0
 63
     7
283
     0
274
    -2
284
     1
 64
     0
275
    -2
285
     1
 65
     0
276
    -2
286
     1
 66
     0
277
    -2
287
     1
 67
     0
278
    -2
288
     1
 68
     0
279
    -2
289
     1
 69
     0
  7
Standard
140
0.18
170
     5
 62
     0
 63
     7
283
     0
274
    -2
284
     1
 64
     0
275
    -2
285
     1
 65
     0
276
    -2
286
     1
 66
     0
277
    -2
287
     1
 67
     0
278
    -2
288
     1
 68
     0
279
    -2
289
     1
 69
     0
  0
VISUALSTYLE
  5
1A
102
{ACAD_REACTORS
330
14
102
}
330
14
100
AcDbVisualStyle
  2
2dWireframe
 70
     4
 71
     0
 72
     2
 73
     0
 90
        0
 40
-0.6
 41
-30.0
 62
     5
 63
     7
 74
     1
 91
        4
 64
     7
 65
   257
 75
     1
175
     1
 42
1.0
 92
        0
 66
   257
 43
1.0
 76
     1
 77
     6
 78
     2
 67
     7
 79
     5
170
     0
171
     0
290
     0
174
     0
 93
        1
 44
0.0
173
     0
291
     0
 45
0.0
1001
ACAD
1000
AcDbSavedByObjectVersion
1070
     0
  0
VISUALSTYLE
  5
1C
102
{ACAD_REACTORS
330
14
102
}
330
14
100
AcDbVisualStyle
  2
3D Hidden
 70
     6
 71
     1
 72
     2
 73
     2
 90
        0
 40
-0.6
 41
-30.0
 62
     5
 63
     7
 74
     2
 91
        2
 64
     7
 65
   257
 75
     2
175
     1
 42
40.0
 92
        0
 66
   257
 43
1.0
 76
     1
 77
     6
 78
     2
 67
     7
 79
     3
170
     0
171
     0
290
     0
174
     0
 93
        1
 44
0.0
173
     0
291
     0
 45
0.0
1001
ACAD
1000
AcDbSavedByObjectVersion
1070
     0
  0
VISUALSTYLE
  5
1B
102
{ACAD_REACTORS
330
14
102
}
330
14
100
AcDbVisualStyle
  2
3dWireframe
 70
     5
 71
     0
 72
     2
 73
     0
 90
        0
 40
-0.6
 41
-30.0
 62
     5
 63
     7
 74
     1
 91
        4
 64
     7
 65
   257
 75
     1
175
     1
 42
1.0
 92
        0
 66
   257
 43
1.0
 76
     1
 77
     6
 78
     2
 67
     7
 79
     5
170
     0
171
     0
290
     0
174
     0
 93
        1
 44
0.0
173
     0
291
     0
 45
0.0
1001
ACAD
1000
AcDbSavedByObjectVersion
1070
     0
  0
VISUALSTYLE
  5
19
102
{ACAD_REACTORS
330
14
102
}
330
14
100
AcDbVisualStyle
  2
Basic
 70
     7
 71
     1
 72
     0
 73
     1
 90
        0
 40
-0.6
 41
-30.0
 62
     5
 63
     7
 74
     0
 91
        4
 64
     7
 65
   257
 75
     1
175
     1
 42
1.0
 92
        8
 66
     7
 43
1.0
 76
     1
 77
     6
 78
     2
 67
     7
 79
     5
170
     0
171
     0
290
     0
174
     0
 93
        1
 44
0.0
173
     0
291
     1
 45
0.0
1001
ACAD
1000
AcDbSavedByObjectVersion
1070
     0
  0
VISUALSTYLE
  5
20
102
{ACAD_REACTORS
330
14
102
}
330
14
100
AcDbVisualStyle
  2
Brighten
 70
    12
 71
     2
 72
     2
 73
     0
 90
        0
 40
-0.6
 41
-30.0
 62
     5
 63
     7
 74
     1
 91
        4
 64
     7
 65
   257
 75
     1
175
     1
 42
1.0
 92
        8
 66
     7
 43
1.0
 76
     1
 77
     6
 78
     2
 67
     7
 79
     5
170
     0
171
     0
290
     0
174
     0
 93
        1
 44
50.0
173
     0
291
     1
 45
0.0
1001
ACAD
1000
AcDbSavedByObjectVersion
1070
     0
  0
VISUALSTYLE
  5
24
102
{ACAD_REACTORS
330
14
102
}
330
14
100
AcDbVisualStyle
  2
ColorChange
 70
    16
 71
     2
 72
     2
 73
     3
 90
        0
 40
-0.6
 41
-30.0
 62
     5
 63
     8
 74
     1
 91
        4
 64
     7
 65
   257
 75
     1
175
     1
 42
1.0
 92
        8
 66
     8
 43
1.0
 76
     1
 77
     6
 78
     2
 67
     7
 79
     5
170
     0
171
     0
290
     0
174
     0
 93
        1
 44
0.0
173
     0
291
     1
 45
0.0
1001
ACAD
1000
AcDbSavedByObjectVersion
1070
     0
  0
VISUALSTYLE
  5
1D
102
{ACAD_REACTORS
330
14
102
}
330
14
100
AcDbVisualStyle
  2
Conceptual
 70
     9
 71
     3
 72
     2
 73
     0
 90
        0
 40
-0.6
 41
-30.0
 62
     5
 63
     7
 74
     2
 91
        2
 64
     7
 65
   257
 75
     1
175
     1
 42
40.0
 92
        8
 66
     7
 43
1.0
 76
     1
 77
     6
 78
     2
 67
     7
 79
     3
170
     0
171
     0
290
     0
174
     0
 93
        1
 44
0.0
173
     0
291
     0
 45
0.0
1001
ACAD
1000
AcDbSavedByObjectVersion
1070
     0
  0
VISUALSTYLE
  5
1F
102
{ACAD_REACTORS
330
14
102
}
330
14
100
AcDbVisualStyle
  2
Dim
 70
    11
 71
     2
 72
     2
 73
     0
 90
        0
 40
-0.6
 41
-30.0
 62
     5
 63
     7
 74
     1
 91
        4
 64
     7
 65
   257
 75
     1
175
     1
 42
1.0
 92
        8
 66
     7
 43
1.0
 76
     1
 77
     6
 78
     2
 67
     7
 79
     5
170
     0
171
     0
290
     0
174
     0
 93
        1
 44
-50.0
173
     0
291
     1
 45
0.0
1001
ACAD
1000
AcDbSavedByObjectVersion
1070
     0
  0
VISUALSTYLE
  5
23
102
{ACAD_REACTORS
330
14
102
}
330
14
100
AcDbVisualStyle
  2
Facepattern
 70
    15
 71
     2
 72
     2
 73
     0
 90
        0
 40
-0.6
 41
-30.0
 62
     5
 63
     7
 74
     1
 91
        4
 64
     7
 65
   257
 75
     1
175
     1
 42
1.0
 92
        8
 66
     7
 43
1.0
 76
     1
 77
     6
 78
     2
 67
     7
 79
     5
170
     0
171
     0
290
     0
174
     0
 93
        1
 44
0.0
173
     0
291
     1
 45
0.0
1001
ACAD
1000
AcDbSavedByObjectVersion
1070
     0
  0
VISUALSTYLE
  5
15
102
{ACAD_REACTORS
330
14
102
}
330
14
100
AcDbVisualStyle
  2
Flat
 70
     0
 71
     2
 72
     1
 73
     1
 90
        2
 40
-0.6
 41
30.0
 62
     5
 63
     7
 74
     0
 91
        4
 64
     7
 65
   257
 75
     1
175
     1
 42
1.0
 92
        8
 66
     7
 43
1.0
 76
     1
 77
     6
 78
     2
 67
     7
 79
     5
170
     0
171
     0
290
     0
174
     0
 93
       13
 44
0.0
173
     0
291
     1
 45
0.0
1001
ACAD
1000
AcDbSavedByObjectVersion
1070
     0
  0
VISUALSTYLE
  5
16
102
{ACAD_REACTORS
330
14
102
}
330
14
100
AcDbVisualStyle
  2
FlatWithEdges
 70
     1
 71
     2
 72
     1
 73
     1
 90
        2
 40
-0.6
 41
30.0
 62
     5
 63
     7
 74
     1
 91
        4
 64
     7
 65
   257
 75
     1
175
     1
 42
1.0
 92
        0
 66
   257
 43
1.0
 76
     1
 77
     6
 78
     2
 67
     7
 79
     5
170
     0
171
     0
290
     0
174
     0
 93
       13
 44
0.0
173
     0
291
     1
 45
0.0
1001
ACAD
1000
AcDbSavedByObjectVersion
1070
     0
  0
VISUALSTYLE
  5
17
102
{ACAD_REACTORS
330
14
102
}
330
14
100
AcDbVisualStyle
  2
Gouraud
 70
     2
 71
     2
 72
     2
 73
     1
 90
        2
 40
-0.6
 41
30.0
 62
     5
 63
     7
 74
     0
 91
        4
 64
     7
 65
   257
 75
     1
175
     1
 42
1.0
 92
        0
 66
     7
 43
1.0
 76
     1
 77
     6
 78
     2
 67
     7
 79
     5
170
     0
171
     0
290
     0
174
     0
 93
       13
 44
0.0
173
     0
291
     1
 45
0.0
1001
ACAD
1000
AcDbSavedByObjectVersion
1070
     0
  0
VISUALSTYLE
  5
18
102
{ACAD_REACTORS
330
14
102
}
330
14
100
AcDbVisualStyle
  2
GouraudWithEdges
 70
     3
 71
     2
 72
     2
 73
     1
 90
        2
 40
-0.6
 41
30.0
 62
     5
 63
     7
 74
     1
 91
        4
 64
     7
 65
   257
 75
     1
175
     1
 42
1.0
 92
        0
 66
   257
 43
1.0
 76
     1
 77
     6
 78
     2
 67
     7
 79
     5
170
     0
171
     0
290
     0
174
     0
 93
       13
 44
0.0
173
     0
291
     1
 45
0.0
1001
ACAD
1000
AcDbSavedByObjectVersion
1070
     0
  0
VISUALSTYLE
  5
22
102
{ACAD_REACTORS
330
14
102
}
330
14
100
AcDbVisualStyle
  2
Linepattern
 70
    14
 71
     2
 72
     2
 73
     0
 90
        0
 40
-0.6
 41
-30.0
 62
     5
 63
     7
 74
     1
 91
        4
 64
     7
 65
   257
 75
     7
175
     7
 42
1.0
 92
        8
 66
     7
 43
1.0
 76
     1
 77
     6
 78
     2
 67
     7
 79
     5
170
     0
171
     0
290
     0
174
     0
 93
        1
 44
0.0
173
     0
291
     1
 45
0.0
1001
ACAD
1000
AcDbSavedByObjectVersion
1070
     0
  0
VISUALSTYLE
  5
1E
102
{ACAD_REACTORS
330
14
102
}
330
14
100
AcDbVisualStyle
  2
Realistic
 70
     8
 71
     2
 72
     2
 73
     0
 90
        0
 40
-0.6
 41
-30.0
 62
     5
 63
     7
 74
     1
 91
        0
 64
     7
 65
   257
 75
     1
175
     1
 42
1.0
 92
        8
 66
     8
 43
1.0
 76
     1
 77
     6
 78
     2
 67
     7
 79
     5
170
     0
171
     0
290
     0
174
     0
 93
       13
 44
0.0
173
     0
291
     0
 45
0.0
1001
ACAD
1000
AcDbSavedByObjectVersion
1070
     0
  0
VISUALSTYLE
  5
21
102
{ACAD_REACTORS
330
14
102
}
330
14
100
AcDbVisualStyle
  2
Thicken
 70
    13
 71
     2
 72
     2
 73
     0
 90
        0
 40
-0.6
 41
-30.0
 62
     5
 63
     7
 74
     1
 91
        4
 64
     7
 65
   257
 75
     1
175
     1
 42
1.0
 92
       12
 66
     7
 43
1.0
 76
     1
 77
     6
 78
     2
 67
     7
 79
     5
170
     0
171
     0
290
     0
174
     0
 93
        1
 44
0.0
173
     0
291
     1
 45
0.0
1001
ACAD
1000
AcDbSavedByObjectVersion
1070
     0
  0
DICTIONARYVAR
  5
3D7
102
{ACAD_REACTORS
330
3D6
102
}
330
3D6
100
DictionaryVariables
280
     0
  1
STANDARD
  0
DICTIONARYVAR
  5
3DB
102
{ACAD_REACTORS
330
3D6
102
}
330
3D6
100
DictionaryVariables
280
     0
  1
1
  0
DICTIONARYVAR
  5
3DA
102
{ACAD_REACTORS
330
3D6
102
}
330
3D6
100
DictionaryVariables
280
     0
  1
1
  0
DICTIONARYVAR
  5
3D9
102
{ACAD_REACTORS
330
3D6
102
}
330
3D6
100
DictionaryVariables
280
     0
  1
0
  0
DICTIONARYVAR
  5
3D8
102
{ACAD_REACTORS
330
3D6
102
}
330
3D6
100
DictionaryVariables
280
     0
  1
127
  0
DICTIONARY
  5
3E5
330
36
100
AcDbDictionary
280
     1
281
     1
  3
ACAD_XREC_ROUNDTRIP
360
3E6
  0
DICTIONARY
  5
3E9
330
3E
100
AcDbDictionary
280
     1
281
     1
  3
ACAD_XREC_ROUNDTRIP
360
3EA
  0
DICTIONARY
  5
3E7
330
3A
100
AcDbDictionary
280
     1
281
     1
  3
ACAD_XREC_ROUNDTRIP
360
3E8
  0
DICTIONARY
  5
3DF
330
12
100
AcDbDictionary
280
     1
281
     1
  3
ACAD_XREC_ROUNDTRIP
360
3E0
  0
DICTIONARY
  5
3DD
330
11
100
AcDbDictionary
280
     1
281
     1
  3
ACAD_XREC_ROUNDTRIP
360
3DE
  0
DICTIONARY
  5
3E1
330
13
100
AcDbDictionary
280
     1
281
     1
  3
ACAD_XREC_ROUNDTRIP
360
3E2
  0
DICTIONARY
  5
3E3
330
32
100
AcDbDictionary
280
     1
281
     1
  3
ACAD_XREC_ROUNDTRIP
360
3E4
  0
XRECORD
  5
3E6
102
{ACAD_REACTORS
330
3E5
102
}
330
3E5
100
AcDbXrecord
280
     1
102
SHADEPLOT
 70
     0
102
SHADEPLOTRESLEVEL
 70
     2
102
SHADEPLOTCUSTOMDPI
 70
   300
  0
XRECORD
  5
3EA
102
{ACAD_REACTORS
330
3E9
102
}
330
3E9
100
AcDbXrecord
280
     1
102
SHADEPLOT
 70
     0
102
SHADEPLOTRESLEVEL
 70
     2
102
SHADEPLOTCUSTOMDPI
 70
   300
  0
XRECORD
  5
3E8
102
{ACAD_REACTORS
330
3E7
102
}
330
3E7
100
AcDbXrecord
280
     1
102
SHADEPLOT
 70
     0
102
SHADEPLOTRESLEVEL
 70
     2
102
SHADEPLOTCUSTOMDPI
 70
   300
  0
XRECORD
  5
3E0
102
{ACAD_REACTORS
330
3DF
102
}
330
3DF
100
AcDbXrecord
280
     1
102
MATERIAL
148
0.0
149
0.0
149
0.0
 93
        0
 94
       63
282
     0
 72
     1
 77
     1
171
     1
175
     1
179
     1
273
     0
  0
XRECORD
  5
3DE
102
{ACAD_REACTORS
330
3DD
102
}
330
3DD
100
AcDbXrecord
280
     1
102
MATERIAL
148
0.0
149
0.0
149
0.0
 93
        0
 94
       63
282
     0
 72
     1
 77
     1
171
     1
175
     1
179
     1
273
     0
  0
XRECORD
  5
3E2
102
{ACAD_REACTORS
330
3E1
102
}
330
3E1
100
AcDbXrecord
280
     1
102
MATERIAL
148
0.0
149
0.0
149
0.0
 93
        0
 94
       63
282
     0
 72
     1
 77
     1
171
     1
175
     1
179
     1
273
     0
  0
XRECORD
  5
3E4
102
{ACAD_REACTORS
330
3E3
102
}
330
3E3
100
AcDbXrecord
280
     1
102
ACAD_ROUNDTRIP_PRE2007_TABLESTYLE
 90
      512
 91
        0
  1

 92
      512
 93
        0
  2

 94
      512
 95
        0
  3

  0
ENDSEC
  0
EOF
