  0
SECTION
  2
HEADER
  9
$ACADVER
  1
AC1015
  9
$ACADMAINTVER
 70
    18
  9
$DWGCODEPAGE
  3
ANSI_1252
  9
$INSBASE
 10
0.0
 20
0.0
 30
0.0
  9
$EXTMIN
 10
0.0
 20
0.0
 30
0.0
  9
$EXTMAX
 10
2.75
 20
2.125
 30
0.0
  9
$LIMMIN
 10
0.0
 20
0.0
  9
$LIMMAX
 10
2.75
 20
2.125
  9
$ORTHOMODE
 70
     0
  9
$REGENMODE
 70
     1
  9
$FILLMODE
 70
     1
  9
$QTEXTMODE
 70
     0
  9
$MIRRTEXT
 70
     0
  9
$LTSCALE
 40
0.25
  9
$ATTMODE
 70
     1
  9
$TEXTSIZE
 40
0.2
  9
$TRACEWID
 40
0.05
  9
$TEXTSTYLE
  7
Standard
  9
$CLAYER
  8
0
  9
$CELTYPE
  6
ByLayer
  9
$CECOLOR
 62
   256
  9
$CELTSCALE
 40
1.0
  9
$DISPSILH
 70
     0
  9
$DIMSCALE
 40
1.0
  9
$DIMASZ
 40
0.0708661417322835
  9
$DIMEXO
 40
0.0625
  9
$DIMDLI
 40
0.38
  9
$DIMRND
 40
0.0
  9
$DIMDLE
 40
0.0
  9
$DIMEXE
 40
0.18
  9
$DIMTP
 40
0.0
  9
$DIMTM
 40
0.0
  9
$DIMTXT
 40
0.3048000037670135
  9
$DIMCEN
 40
0.09
  9
$DIMTSZ
 40
0.0
  9
$DIMTOL
 70
     0
  9
$DIMLIM
 70
     0
  9
$DIMTIH
 70
     1
  9
$DIMTOH
 70
     1
  9
$DIMSE1
 70
     0
  9
$DIMSE2
 70
     0
  9
$DIMTAD
 70
     0
  9
$DIMZIN
 70
     0
  9
$DIMBLK
  1

  9
$DIMASO
 70
     1
  9
$DIMSHO
 70
     1
  9
$DIMPOST
  1

  9
$DIMAPOST
  1

  9
$DIMALT
 70
     0
  9
$DIMALTD
 70
     2
  9
$DIMALTF
 40
25.4
  9
$DIMLFAC
 40
1.0
  9
$DIMTOFL
 70
     0
  9
$DIMTVP
 40
0.0
  9
$DIMTIX
 70
     0
  9
$DIMSOXD
 70
     0
  9
$DIMSAH
 70
     0
  9
$DIMBLK1
  1

  9
$DIMBLK2
  1

  9
$DIMSTYLE
  2
Standard
  9
$DIMCLRD
 70
     0
  9
$DIMCLRE
 70
     0
  9
$DIMCLRT
 70
     0
  9
$DIMTFAC
 40
1.0
  9
$DIMGAP
 40
0.09
  9
$DIMJUST
 70
     0
  9
$DIMSD1
 70
     0
  9
$DIMSD2
 70
     0
  9
$DIMTOLJ
 70
     1
  9
$DIMTZIN
 70
     0
  9
$DIMALTZ
 70
     0
  9
$DIMALTTZ
 70
     0
  9
$DIMUPT
 70
     0
  9
$DIMDEC
 70
     4
  9
$DIMTDEC
 70
     4
  9
$DIMALTU
 70
     2
  9
$DIMALTTD
 70
     2
  9
$DIMTXSTY
  7
Standard
  9
$DIMAUNIT
 70
     0
  9
$DIMADEC
 70
     0
  9
$DIMALTRND
 40
0.0
  9
$DIMAZIN
 70
     0
  9
$DIMDSEP
 70
    46
  9
$DIMATFIT
 70
     3
  9
$DIMFRAC
 70
     0
  9
$DIMLDRBLK
  1

  9
$DIMLUNIT
 70
     2
  9
$DIMLWD
 70
    -2
  9
$DIMLWE
 70
    -2
  9
$DIMTMOVE
 70
     0
  9
$LUNITS
 70
     2
  9
$LUPREC
 70
     4
  9
$SKETCHINC
 40
0.1
  9
$FILLETRAD
 40
0.0
  9
$AUNITS
 70
     0
  9
$AUPREC
 70
     0
  9
$MENU
  1
.
  9
$ELEVATION
 40
0.0
  9
$PELEVATION
 40
0.0
  9
$THICKNESS
 40
0.0
  9
$LIMCHECK
 70
     0
  9
$CHAMFERA
 40
0.0
  9
$CHAMFERB
 40
0.0
  9
$CHAMFERC
 40
0.0
  9
$CHAMFERD
 40
0.0
  9
$SKPOLY
 70
     0
  9
$TDCREATE
 40
2454846.639317489
  9
$TDUCREATE
 40
2454846.972650822
  9
$TDUPDATE
 40
2454846.639317489
  9
$TDUUPDATE
 40
2454846.972650822
  9
$TDINDWG
 40
0.0000403241
  9
$TDUSRTIMER
 40
0.0000403241
  9
$USRTIMER
 70
     1
  9
$ANGBASE
 50
0.0
  9
$ANGDIR
 70
     0
  9
$PDMODE
 70
     0
  9
$PDSIZE
 40
0.0
  9
$PLINEWID
 40
0.0
  9
$SPLFRAME
 70
     0
  9
$SPLINETYPE
 70
     6
  9
$SPLINESEGS
 70
     8
  9
$HANDSEED
  5
3A2
  9
$SURFTAB1
 70
     6
  9
$SURFTAB2
 70
     6
  9
$SURFTYPE
 70
     6
  9
$SURFU
 70
     6
  9
$SURFV
 70
     6
  9
$UCSBASE
  2

  9
$UCSNAME
  2

  9
$UCSORG
 10
0.0
 20
0.0
 30
0.0
  9
$UCSXDIR
 10
1.0
 20
0.0
 30
0.0
  9
$UCSYDIR
 10
0.0
 20
1.0
 30
0.0
  9
$UCSORTHOREF
  2

  9
$UCSORTHOVIEW
 70
     0
  9
$UCSORGTOP
 10
0.0
 20
0.0
 30
0.0
  9
$UCSORGBOTTOM
 10
0.0
 20
0.0
 30
0.0
  9
$UCSORGLEFT
 10
0.0
 20
0.0
 30
0.0
  9
$UCSORGRIGHT
 10
0.0
 20
0.0
 30
0.0
  9
$UCSORGFRONT
 10
0.0
 20
0.0
 30
0.0
  9
$UCSORGBACK
 10
0.0
 20
0.0
 30
0.0
  9
$PUCSBASE
  2

  9
$PUCSNAME
  2

  9
$PUCSORG
 10
0.0
 20
0.0
 30
0.0
  9
$PUCSXDIR
 10
1.0
 20
0.0
 30
0.0
  9
$PUCSYDIR
 10
0.0
 20
1.0
 30
0.0
  9
$PUCSORTHOREF
  2

  9
$PUCSORTHOVIEW
 70
     0
  9
$PUCSORGTOP
 10
0.0
 20
0.0
 30
0.0
  9
$PUCSORGBOTTOM
 10
0.0
 20
0.0
 30
0.0
  9
$PUCSORGLEFT
 10
0.0
 20
0.0
 30
0.0
  9
$PUCSORGRIGHT
 10
0.0
 20
0.0
 30
0.0
  9
$PUCSORGFRONT
 10
0.0
 20
0.0
 30
0.0
  9
$PUCSORGBACK
 10
0.0
 20
0.0
 30
0.0
  9
$USERI1
 70
     0
  9
$USERI2
 70
     0
  9
$USERI3
 70
     0
  9
$USERI4
 70
     0
  9
$USERI5
 70
     0
  9
$USERR1
 40
0.0
  9
$USERR2
 40
0.0
  9
$USERR3
 40
0.0
  9
$USERR4
 40
0.0
  9
$USERR5
 40
0.0
  9
$WORLDVIEW
 70
     1
  9
$SHADEDGE
 70
     3
  9
$SHADEDIF
 70
    70
  9
$TILEMODE
 70
     1
  9
$MAXACTVP
 70
    64
  9
$PINSBASE
 10
0.0
 20
0.0
 30
0.0
  9
$PLIMCHECK
 70
     0
  9
$PEXTMIN
 10
0.0
 20
0.0
 30
0.0
  9
$PEXTMAX
 10
2.75
 20
2.125
 30
0.0
  9
$PLIMMIN
 10
0.0
 20
0.0
  9
$PLIMMAX
 10
2.75
 20
2.125
  9
$UNITMODE
 70
     0
  9
$VISRETAIN
 70
     1
  9
$PLINEGEN
 70
     0
  9
$PSLTSCALE
 70
     1
  9
$TREEDEPTH
 70
  3020
  9
$CMLSTYLE
  2
Standard
  9
$CMLJUST
 70
     0
  9
$CMLSCALE
 40
1.0
  9
$PROXYGRAPHICS
 70
     1
  9
$MEASUREMENT
 70
     0
  9
$CELWEIGHT
370
    -1
  9
$ENDCAPS
280
     0
  9
$JOINSTYLE
280
     0
  9
$LWDISPLAY
290
     0
  9
$INSUNITS
 70
     0
  9
$HYPERLINKBASE
  1

  9
$STYLESHEET
  1

  9
$XEDIT
290
     1
  9
$CEPSNTYPE
380
     0
  9
$PSTYLEMODE
290
     1
  9
$FINGERPRINTGUID
  2
{D1398C56-8BCE-4C9E-806F-CE3B7FDF5B15}
  9
$VERSIONGUID
  2
{832FD96D-F652-46C5-A969-D7744499F63F}
  9
$EXTNAMES
290
     1
  9
$PSVPSCALE
 40
0.0
  9
$OLESTARTUP
290
     0
  0
ENDSEC
  0
SECTION
  2
CLASSES
  0
CLASS
  1
ACDBDICTIONARYWDFLT
  2
AcDbDictionaryWithDefault
  3
ObjectDBX Classes
 90
        0
280
     0
281
     0
  0
CLASS
  1
MATERIAL
  2
AcDbMaterial
  3
ObjectDBX Classes
 90
     1024
280
     0
281
     0
  0
CLASS
  1
VISUALSTYLE
  2
AcDbVisualStyle
  3
ObjectDBX Classes
 90
     4095
280
     0
281
     0
  0
CLASS
  1
TABLESTYLE
  2
AcDbTableStyle
  3
ObjectDBX Classes
 90
     4095
280
     0
281
     0
  0
CLASS
  1
DICTIONARYVAR
  2
AcDbDictionaryVar
  3
ObjectDBX Classes
 90
        0
280
     0
281
     0
  0
CLASS
  1
ACDBPLACEHOLDER
  2
AcDbPlaceHolder
  3
ObjectDBX Classes
 90
        0
280
     0
281
     0
  0
CLASS
  1
LAYOUT
  2
AcDbLayout
  3
ObjectDBX Classes
 90
        0
280
     0
281
     0
  0
ENDSEC
  0
SECTION
  2
TABLES
  0
TABLE
  2
VPORT
  5
8
330
0
100
AcDbSymbolTable
 70
     1
  0
VPORT
  5
28
330
8
100
AcDbSymbolTableRecord
100
AcDbViewportTableRecord
  2
*Active
 70
     0
 10
0.0
 20
0.0
 11
1.0
 21
1.0
 12
1.375
 22
1.0625
 13
0.0
 23
0.0
 14
1.0
 24
1.0
 15
0.0
 25
0.0
 16
0.0
 26
0.0
 36
1.0
 17
0.0
 27
0.0
 37
0.0
 40
2.125
 41
1.294117647058823
 42
50.0
 43
0.0
 44
0.0
 50
0.0
 51
0.0
 71
     0
 72
   100
 73
     1
 74
     1
 75
     0
 76
     0
 77
     0
 78
     0
281
     0
 65
     1
110
0.0
120
0.0
130
0.0
111
1.0
121
0.0
131
0.0
112
0.0
122
1.0
132
0.0
 79
     0
146
0.0
  0
ENDTAB
  0
TABLE
  2
LTYPE
  5
5
330
0
100
AcDbSymbolTable
 70
    59
  0
LTYPE
  5
29
330
5
100
AcDbSymbolTableRecord
100
AcDbLinetypeTableRecord
  2
ByBlock
 70
     0
  3

 72
    65
 73
     0
 40
0.0
  0
LTYPE
  5
2A
330
5
100
AcDbSymbolTableRecord
100
AcDbLinetypeTableRecord
  2
ByLayer
 70
     0
  3

 72
    65
 73
     0
 40
0.0
  0
LTYPE
  5
2B
330
5
100
AcDbSymbolTableRecord
100
AcDbLinetypeTableRecord
  2
Continuous
 70
     0
  3
Solid line
 72
    65
 73
     0
 40
0.0
  0
LTYPE
  5
40
330
5
100
AcDbSymbolTableRecord
100
AcDbLinetypeTableRecord
  2
BY_STANDARD
 70
     0
  3
By Standard ____________    ____    ____   _
 72
    65
 73
     6
 40
1.240299999999999
 49
0.6614
 74
     0
 49
-0.0827
 74
     0
 49
0.1654
 74
     0
 49
-0.0827
 74
     0
 49
0.1654
 74
     0
 49
-0.0827
 74
     0
  0
LTYPE
  5
41
330
5
100
AcDbSymbolTableRecord
100
AcDbLinetypeTableRecord
  2
CHAIN
 70
     0
  3
Chain ____ _ ____ _ ____ _ ____ _ ____ _ ____
 72
    65
 73
     4
 40
0.7087
 49
0.4724000000000001
 74
     0
 49
-0.0591
 74
     0
 49
0.1181
 74
     0
 49
-0.0591
 74
     0
  0
LTYPE
  5
42
330
5
100
AcDbSymbolTableRecord
100
AcDbLinetypeTableRecord
  2
DASH_DOT
 70
     0
  3
Dash dot __ . __ . __ . __ . __ . __ . __ . __
 72
    65
 73
     4
 40
0.37
 49
0.24
 74
     0
 49
-0.06
 74
     0
 49
0.01
 74
     0
 49
-0.06
 74
     0
  0
LTYPE
  5
43
330
5
100
AcDbSymbolTableRecord
100
AcDbLinetypeTableRecord
  2
DOUBLE_DASH_DOT
 70
     0
  3
Double-Dash Dot __ __ . __ __ . __ __ . __ _
 72
    65
 73
     6
 40
0.4398
 49
0.24
 74
     0
 49
-0.06
 74
     0
 49
0.0098
 74
     0
 49
-0.06
 74
     0
 49
0.01
 74
     0
 49
-0.06
 74
     0
  0
LTYPE
  5
44
330
5
100
AcDbSymbolTableRecord
100
AcDbLinetypeTableRecord
  2
DASH_TRIPLE_DOT
 70
     0
  3
Dash Triple-Dot _ . . . _ . . . _ . . . _
 72
    65
 73
     8
 40
0.51
 49
0.24
 74
     0
 49
-0.06
 74
     0
 49
0.01
 74
     0
 49
-0.06
 74
     0
 49
0.01
 74
     0
 49
-0.06
 74
     0
 49
0.01
 74
     0
 49
-0.06
 74
     0
  0
LTYPE
  5
45
330
5
100
AcDbSymbolTableRecord
100
AcDbLinetypeTableRecord
  2
DASHED
 70
     0
  3
Dashed __ __ __ __ __ __ __ __ __ __ __ __ __ _
 72
    65
 73
     2
 40
0.2067
 49
0.1654
 74
     0
 49
-0.0413
 74
     0
  0
LTYPE
  5
46
330
5
100
AcDbSymbolTableRecord
100
AcDbLinetypeTableRecord
  2
DASH_DOUBLE_DOT
 70
     0
  3
Dash Double-Dot __ . . __ . . __ . . __ . .
 72
    65
 73
     6
 40
0.4398
 49
0.24
 74
     0
 49
-0.06
 74
     0
 49
0.0098
 74
     0
 49
-0.06
 74
     0
 49
0.01
 74
     0
 49
-0.06
 74
     0
  0
LTYPE
  5
47
330
5
100
AcDbSymbolTableRecord
100
AcDbLinetypeTableRecord
  2
DASHED_SPACE
 70
     0
  3
Dashed Space __ __ __ __ __ __ __ __ __ __ __ _
 72
    65
 73
     2
 40
0.2067
 49
0.1654
 74
     0
 49
-0.0413
 74
     0
  0
LTYPE
  5
48
330
5
100
AcDbSymbolTableRecord
100
AcDbLinetypeTableRecord
  2
DOTTED
 70
     0
  3
Dotted . . . . . . . . . . . . . . . . . . . . 
 72
    65
 73
     2
 40
0.0482
 49
0.0069
 74
     0
 49
-0.0413
 74
     0
  0
LTYPE
  5
49
330
5
100
AcDbSymbolTableRecord
100
AcDbLinetypeTableRecord
  2
DOUBLE_DASH_CHAIN
 70
     0
  3
Double-Dash Chain ______  __  __  ______  __  _
 72
    65
 73
     6
 40
1.240299999999999
 49
0.6614
 74
     0
 49
-0.0827
 74
     0
 49
0.1654
 74
     0
 49
-0.0827
 74
     0
 49
0.1654
 74
     0
 49
-0.0827
 74
     0
  0
LTYPE
  5
4B
330
5
100
AcDbSymbolTableRecord
100
AcDbLinetypeTableRecord
  2
DOUBLE_DASH_DOUBLE_DOT
 70
     0
  3
Double-Dash Double-dot _ _ . . _ _ . . _
 72
    65
 73
     8
 40
0.7400000000000001
 49
0.24
 74
     0
 49
-0.06
 74
     0
 49
0.24
 74
     0
 49
-0.06
 74
     0
 49
0.01
 74
     0
 49
-0.06
 74
     0
 49
0.01
 74
     0
 49
-0.06
 74
     0
  0
LTYPE
  5
4C
330
5
100
AcDbSymbolTableRecord
100
AcDbLinetypeTableRecord
  2
DOUBLE_DASH_TRIPLE_DOT
 70
     0
  3
Double Dash Triple Dot __ __ . . . __ __ . .
 72
    65
 73
    10
 40
0.8100000000000001
 49
0.24
 74
     0
 49
-0.06
 74
     0
 49
0.24
 74
     0
 49
-0.06
 74
     0
 49
0.01
 74
     0
 49
-0.06
 74
     0
 49
0.01
 74
     0
 49
-0.06
 74
     0
 49
0.01
 74
     0
 49
-0.06
 74
     0
  0
LTYPE
  5
4D
330
5
100
AcDbSymbolTableRecord
100
AcDbLinetypeTableRecord
  2
LONG_DASH_DOTTED
 70
     0
  3
Long Dash Dotted ____ . ____ . ____ . ____ . _
 72
    65
 73
     4
 40
0.3543
 49
0.2362
 74
     0
 49
-0.0295
 74
     0
 49
0.0591
 74
     0
 49
-0.0295
 74
     0
  0
LTYPE
  5
4E
330
5
100
AcDbSymbolTableRecord
100
AcDbLinetypeTableRecord
  2
LONG_DASH_DOUBLE_DOT
 70
     0
  3
Long Dash Double Dot ________  .  .  ________  
 72
    65
 73
     6
 40
0.6799999999999999
 49
0.48
 74
     0
 49
-0.06
 74
     0
 49
0.01
 74
     0
 49
-0.06
 74
     0
 49
0.01
 74
     0
 49
-0.06
 74
     0
  0
LTYPE
  5
4F
330
5
100
AcDbSymbolTableRecord
100
AcDbLinetypeTableRecord
  2
LONG_DASH_TRIPLE_DOT
 70
     0
  3
Long Dash Triple Dot ____ ... ____ ... ____
 72
    65
 73
     8
 40
0.3689
 49
0.2362
 74
     0
 49
-0.0295
 74
     0
 49
0.0049
 74
     0
 49
-0.0295
 74
     0
 49
0.0049
 74
     0
 49
-0.0295
 74
     0
 49
0.0049
 74
     0
 49
-0.0295
 74
     0
  0
LTYPE
  5
50
330
5
100
AcDbSymbolTableRecord
100
AcDbLinetypeTableRecord
  2
BORDER
 70
     0
  3
Border __ __ . __ __ . __ __ . __ __ . __ __ .
 72
    65
 73
     6
 40
1.75
 49
0.5
 74
     0
 49
-0.25
 74
     0
 49
0.5
 74
     0
 49
-0.25
 74
     0
 49
0.0
 74
     0
 49
-0.25
 74
     0
  0
LTYPE
  5
51
330
5
100
AcDbSymbolTableRecord
100
AcDbLinetypeTableRecord
  2
BORDER2
 70
     0
  3
Border (.5x) __.__.__.__.__.__.__.__.__.__.__.
 72
    65
 73
     6
 40
0.875
 49
0.25
 74
     0
 49
-0.125
 74
     0
 49
0.25
 74
     0
 49
-0.125
 74
     0
 49
0.0
 74
     0
 49
-0.125
 74
     0
  0
LTYPE
  5
52
330
5
100
AcDbSymbolTableRecord
100
AcDbLinetypeTableRecord
  2
BORDERX2
 70
     0
  3
Border (2x) ____  ____  .  ____  ____  .  ___
 72
    65
 73
     6
 40
3.5
 49
1.0
 74
     0
 49
-0.5
 74
     0
 49
1.0
 74
     0
 49
-0.5
 74
     0
 49
0.0
 74
     0
 49
-0.5
 74
     0
  0
LTYPE
  5
53
330
5
100
AcDbSymbolTableRecord
100
AcDbLinetypeTableRecord
  2
CENTER
 70
     0
  3
Center ____ _ ____ _ ____ _ ____ _ ____ _ ____
 72
    65
 73
     4
 40
2.0
 49
1.25
 74
     0
 49
-0.25
 74
     0
 49
0.25
 74
     0
 49
-0.25
 74
     0
  0
LTYPE
  5
54
330
5
100
AcDbSymbolTableRecord
100
AcDbLinetypeTableRecord
  2
CENTER2
 70
     0
  3
Center (.5x) ___ _ ___ _ ___ _ ___ _ ___ _ ___
 72
    65
 73
     4
 40
1.125
 49
0.75
 74
     0
 49
-0.125
 74
     0
 49
0.125
 74
     0
 49
-0.125
 74
     0
  0
LTYPE
  5
55
330
5
100
AcDbSymbolTableRecord
100
AcDbLinetypeTableRecord
  2
CENTERX2
 70
     0
  3
Center (2x) ________  __  ________  __  _____
 72
    65
 73
     4
 40
4.0
 49
2.5
 74
     0
 49
-0.5
 74
     0
 49
0.5
 74
     0
 49
-0.5
 74
     0
  0
LTYPE
  5
56
330
5
100
AcDbSymbolTableRecord
100
AcDbLinetypeTableRecord
  2
DASHDOT2
 70
     0
  3
Dash dot (.5x) _._._._._._._._._._._._._._._.
 72
    65
 73
     4
 40
0.5
 49
0.25
 74
     0
 49
-0.125
 74
     0
 49
0.0
 74
     0
 49
-0.125
 74
     0
  0
LTYPE
  5
57
330
5
100
AcDbSymbolTableRecord
100
AcDbLinetypeTableRecord
  2
DASHDOTX2
 70
     0
  3
Dash dot (2x) ____  .  ____  .  ____  .  ___
 72
    65
 73
     4
 40
2.0
 49
1.0
 74
     0
 49
-0.5
 74
     0
 49
0.0
 74
     0
 49
-0.5
 74
     0
  0
LTYPE
  5
59
330
5
100
AcDbSymbolTableRecord
100
AcDbLinetypeTableRecord
  2
DASHED2
 70
     0
  3
Dashed (.5x) _ _ _ _ _ _ _ _ _ _ _ _ _ _ _ _ _
 72
    65
 73
     2
 40
0.375
 49
0.25
 74
     0
 49
-0.125
 74
     0
  0
LTYPE
  5
5A
330
5
100
AcDbSymbolTableRecord
100
AcDbLinetypeTableRecord
  2
DASHEDX2
 70
     0
  3
Dashed (2x) ____  ____  ____  ____  ____  ___
 72
    65
 73
     2
 40
1.5
 49
1.0
 74
     0
 49
-0.5
 74
     0
  0
LTYPE
  5
5B
330
5
100
AcDbSymbolTableRecord
100
AcDbLinetypeTableRecord
  2
DIVIDE
 70
     0
  3
Divide ____ . . ____ . . ____ . . ____ . . ____
 72
    65
 73
     6
 40
1.25
 49
0.5
 74
     0
 49
-0.25
 74
     0
 49
0.0
 74
     0
 49
-0.25
 74
     0
 49
0.0
 74
     0
 49
-0.25
 74
     0
  0
LTYPE
  5
5C
330
5
100
AcDbSymbolTableRecord
100
AcDbLinetypeTableRecord
  2
DIVIDE2
 70
     0
  3
Divide (.5x) __..__..__..__..__..__..__..__.._
 72
    65
 73
     6
 40
0.625
 49
0.25
 74
     0
 49
-0.125
 74
     0
 49
0.0
 74
     0
 49
-0.125
 74
     0
 49
0.0
 74
     0
 49
-0.125
 74
     0
  0
LTYPE
  5
5D
330
5
100
AcDbSymbolTableRecord
100
AcDbLinetypeTableRecord
  2
DIVIDEX2
 70
     0
  3
Divide (2x) ________  .  .  ________  .  .  _
 72
    65
 73
     6
 40
2.5
 49
1.0
 74
     0
 49
-0.5
 74
     0
 49
0.0
 74
     0
 49
-0.5
 74
     0
 49
0.0
 74
     0
 49
-0.5
 74
     0
  0
LTYPE
  5
5E
330
5
100
AcDbSymbolTableRecord
100
AcDbLinetypeTableRecord
  2
DOT
 70
     0
  3
Dot . . . . . . . . . . . . . . . . . . . . . .
 72
    65
 73
     2
 40
0.25
 49
0.0
 74
     0
 49
-0.25
 74
     0
  0
LTYPE
  5
5F
330
5
100
AcDbSymbolTableRecord
100
AcDbLinetypeTableRecord
  2
DOT2
 70
     0
  3
Dot (.5x) .....................................
 72
    65
 73
     2
 40
0.125
 49
0.0
 74
     0
 49
-0.125
 74
     0
  0
LTYPE
  5
60
330
5
100
AcDbSymbolTableRecord
100
AcDbLinetypeTableRecord
  2
DOTX2
 70
     0
  3
Dot (2x) .  .  .  .  .  .  .  .  .  .  .  .  . 
 72
    65
 73
     2
 40
0.5
 49
0.0
 74
     0
 49
-0.5
 74
     0
  0
LTYPE
  5
61
330
5
100
AcDbSymbolTableRecord
100
AcDbLinetypeTableRecord
  2
HIDDEN
 70
     0
  3
Hidden __ __ __ __ __ __ __ __ __ __ __ __ __ _
 72
    65
 73
     2
 40
0.375
 49
0.25
 74
     0
 49
-0.125
 74
     0
  0
LTYPE
  5
62
330
5
100
AcDbSymbolTableRecord
100
AcDbLinetypeTableRecord
  2
HIDDEN2
 70
     0
  3
Hidden (.5x) _ _ _ _ _ _ _ _ _ _ _ _ _ _ _ _ _
 72
    65
 73
     2
 40
0.1875
 49
0.125
 74
     0
 49
-0.0625
 74
     0
  0
LTYPE
  5
63
330
5
100
AcDbSymbolTableRecord
100
AcDbLinetypeTableRecord
  2
HIDDENX2
 70
     0
  3
Hidden (2x) ____ ____ ____ ____ ____ ____ ____
 72
    65
 73
     2
 40
0.75
 49
0.5
 74
     0
 49
-0.25
 74
     0
  0
LTYPE
  5
64
330
5
100
AcDbSymbolTableRecord
100
AcDbLinetypeTableRecord
  2
PHANTOM
 70
     0
  3
Phantom ______  __  __  ______  __  __  ______
 72
    65
 73
     6
 40
2.5
 49
1.25
 74
     0
 49
-0.25
 74
     0
 49
0.25
 74
     0
 49
-0.25
 74
     0
 49
0.25
 74
     0
 49
-0.25
 74
     0
  0
LTYPE
  5
65
330
5
100
AcDbSymbolTableRecord
100
AcDbLinetypeTableRecord
  2
PHANTOM2
 70
     0
  3
Phantom (.5x) ___ _ _ ___ _ _ ___ _ _ ___ _ _
 72
    65
 73
     6
 40
1.25
 49
0.625
 74
     0
 49
-0.125
 74
     0
 49
0.125
 74
     0
 49
-0.125
 74
     0
 49
0.125
 74
     0
 49
-0.125
 74
     0
  0
LTYPE
  5
66
330
5
100
AcDbSymbolTableRecord
100
AcDbLinetypeTableRecord
  2
PHANTOMX2
 70
     0
  3
Phantom (2x) ____________    ____    ____   _
 72
    65
 73
     6
 40
5.0
 49
2.5
 74
     0
 49
-0.5
 74
     0
 49
0.5
 74
     0
 49
-0.5
 74
     0
 49
0.5
 74
     0
 49
-0.5
 74
     0
  0
LTYPE
  5
67
330
5
100
AcDbSymbolTableRecord
100
AcDbLinetypeTableRecord
  2
ACAD_ISO02W100
 70
     0
  3
ISO dash __ __ __ __ __ __ __ __ __ __ __ __ __
 72
    65
 73
     2
 40
0.59
 49
0.47
 74
     0
 49
-0.12
 74
     0
  0
LTYPE
  5
68
330
5
100
AcDbSymbolTableRecord
100
AcDbLinetypeTableRecord
  2
ACAD_ISO03W100
 70
     0
  3
ISO dash space __    __    __    __    __    __
 72
    65
 73
     2
 40
1.179999999999999
 49
0.47
 74
     0
 49
-0.71
 74
     0
  0
LTYPE
  5
69
330
5
100
AcDbSymbolTableRecord
100
AcDbLinetypeTableRecord
  2
ACAD_ISO04W100
 70
     0
  3
ISO long-dash dot ____ . ____ . ____ . ____ . _
 72
    65
 73
     4
 40
1.179999999999999
 49
0.9399999999999998
 74
     0
 49
-0.12
 74
     0
 49
0.0
 74
     0
 49
-0.12
 74
     0
  0
LTYPE
  5
6A
330
5
100
AcDbSymbolTableRecord
100
AcDbLinetypeTableRecord
  2
ACAD_ISO05W100
 70
     0
  3
ISO long-dash double-dot ____ .. ____ .. ____ .
 72
    65
 73
     6
 40
1.299999999999999
 49
0.9399999999999998
 74
     0
 49
-0.12
 74
     0
 49
0.0
 74
     0
 49
-0.12
 74
     0
 49
0.0
 74
     0
 49
-0.12
 74
     0
  0
LTYPE
  5
6B
330
5
100
AcDbSymbolTableRecord
100
AcDbLinetypeTableRecord
  2
ACAD_ISO06W100
 70
     0
  3
ISO long-dash triple-dot ____ ... ____ ... ____
 72
    65
 73
     8
 40
1.419999999999999
 49
0.9399999999999998
 74
     0
 49
-0.12
 74
     0
 49
0.0
 74
     0
 49
-0.12
 74
     0
 49
0.0
 74
     0
 49
-0.12
 74
     0
 49
0.0
 74
     0
 49
-0.12
 74
     0
  0
LTYPE
  5
6C
330
5
100
AcDbSymbolTableRecord
100
AcDbLinetypeTableRecord
  2
ACAD_ISO07W100
 70
     0
  3
ISO dot . . . . . . . . . . . . . . . . . . . .
 72
    65
 73
     2
 40
0.12
 49
0.0
 74
     0
 49
-0.12
 74
     0
  0
LTYPE
  5
6D
330
5
100
AcDbSymbolTableRecord
100
AcDbLinetypeTableRecord
  2
ACAD_ISO08W100
 70
     0
  3
ISO long-dash short-dash ____ __ ____ __ ____ _
 72
    65
 73
     4
 40
0.95
 49
0.47
 74
     0
 49
-0.12
 74
     0
 49
0.24
 74
     0
 49
-0.12
 74
     0
  0
LTYPE
  5
6E
330
5
100
AcDbSymbolTableRecord
100
AcDbLinetypeTableRecord
  2
ACAD_ISO09W100
 70
     0
  3
ISO long-dash double-short-dash ____ __ __ ____
 72
    65
 73
     6
 40
1.31
 49
0.47
 74
     0
 49
-0.12
 74
     0
 49
0.24
 74
     0
 49
-0.12
 74
     0
 49
0.24
 74
     0
 49
-0.12
 74
     0
  0
LTYPE
  5
6F
330
5
100
AcDbSymbolTableRecord
100
AcDbLinetypeTableRecord
  2
ACAD_ISO10W100
 70
     0
  3
ISO dash dot __ . __ . __ . __ . __ . __ . __ .
 72
    65
 73
     4
 40
0.71
 49
0.47
 74
     0
 49
-0.12
 74
     0
 49
0.0
 74
     0
 49
-0.12
 74
     0
  0
LTYPE
  5
70
330
5
100
AcDbSymbolTableRecord
100
AcDbLinetypeTableRecord
  2
ACAD_ISO11W100
 70
     0
  3
ISO double-dash dot __ __ . __ __ . __ __ . __ 
 72
    65
 73
     6
 40
1.299999999999999
 49
0.47
 74
     0
 49
-0.12
 74
     0
 49
0.47
 74
     0
 49
-0.12
 74
     0
 49
0.0
 74
     0
 49
-0.12
 74
     0
  0
LTYPE
  5
71
330
5
100
AcDbSymbolTableRecord
100
AcDbLinetypeTableRecord
  2
ACAD_ISO12W100
 70
     0
  3
ISO dash double-dot __ . . __ . . __ . . __ . .
 72
    65
 73
     6
 40
0.8299999999999998
 49
0.47
 74
     0
 49
-0.12
 74
     0
 49
0.0
 74
     0
 49
-0.12
 74
     0
 49
0.0
 74
     0
 49
-0.12
 74
     0
  0
LTYPE
  5
72
330
5
100
AcDbSymbolTableRecord
100
AcDbLinetypeTableRecord
  2
ACAD_ISO13W100
 70
     0
  3
ISO double-dash double-dot __ __ . . __ __ . . 
 72
    65
 73
     8
 40
1.419999999999999
 49
0.47
 74
     0
 49
-0.12
 74
     0
 49
0.47
 74
     0
 49
-0.12
 74
     0
 49
0.0
 74
     0
 49
-0.12
 74
     0
 49
0.0
 74
     0
 49
-0.12
 74
     0
  0
LTYPE
  5
73
330
5
100
AcDbSymbolTableRecord
100
AcDbLinetypeTableRecord
  2
ACAD_ISO14W100
 70
     0
  3
ISO dash triple-dot __ . . . __ . . . __ . . . 
 72
    65
 73
     8
 40
0.95
 49
0.47
 74
     0
 49
-0.12
 74
     0
 49
0.0
 74
     0
 49
-0.12
 74
     0
 49
0.0
 74
     0
 49
-0.12
 74
     0
 49
0.0
 74
     0
 49
-0.12
 74
     0
  0
LTYPE
  5
74
330
5
100
AcDbSymbolTableRecord
100
AcDbLinetypeTableRecord
  2
ACAD_ISO15W100
 70
     0
  3
ISO double-dash triple-dot __ __ . . . __ __ . 
 72
    65
 73
    10
 40
1.539999999999999
 49
0.47
 74
     0
 49
-0.12
 74
     0
 49
0.47
 74
     0
 49
-0.12
 74
     0
 49
0.0
 74
     0
 49
-0.12
 74
     0
 49
0.0
 74
     0
 49
-0.12
 74
     0
 49
0.0
 74
     0
 49
-0.12
 74
     0
  0
LTYPE
  5
77
330
5
100
AcDbSymbolTableRecord
100
AcDbLinetypeTableRecord
  2
FENCELINE1
 70
     0
  3
Fenceline circle ----0-----0----0-----0----0---
 72
    65
 73
     4
 40
1.45
 49
0.25
 74
     0
 49
-0.1
 74
     4
 75
   133
340
76
 46
0.1
 50
0.0
 44
-0.1
 45
0.0
 49
-0.1
 74
     0
 49
1.0
 74
     0
  0
LTYPE
  5
78
330
5
100
AcDbSymbolTableRecord
100
AcDbLinetypeTableRecord
  2
FENCELINE2
 70
     0
  3
Fenceline square ----[]-----[]----[]-----[]----
 72
    65
 73
     4
 40
1.45
 49
0.25
 74
     0
 49
-0.1
 74
     4
 75
   132
340
76
 46
0.1
 50
0.0
 44
-0.1
 45
0.0
 49
-0.1
 74
     0
 49
1.0
 74
     0
  0
LTYPE
  5
79
330
5
100
AcDbSymbolTableRecord
100
AcDbLinetypeTableRecord
  2
TRACKS
 70
     0
  3
Tracks -|-|-|-|-|-|-|-|-|-|-|-|-|-|-|-|-|-|-|-|
 72
    65
 73
     2
 40
0.3
 49
0.15
 74
     4
 75
   130
340
76
 46
0.25
 50
0.0
 44
0.0
 45
0.0
 49
0.15
 74
     0
  0
LTYPE
  5
7A
330
5
100
AcDbSymbolTableRecord
100
AcDbLinetypeTableRecord
  2
BATTING
 70
     0
  3
Batting SSSSSSSSSSSSSSSSSSSSSSSSSSSSSSSSSSSSSSS
 72
    65
 73
     4
 40
0.4001000000000001
 49
0.0001
 74
     0
 49
-0.1
 74
     4
 75
   134
340
76
 46
0.1
 50
0.0
 44
-0.1
 45
0.0
 49
-0.2
 74
     4
 75
   134
340
76
 46
0.1
 50
180.0
 44
0.1
 45
0.0
 49
-0.1
 74
     0
  0
LTYPE
  5
7B
330
5
100
AcDbSymbolTableRecord
100
AcDbLinetypeTableRecord
  2
HOT_WATER_SUPPLY
 70
     0
  3
Hot water supply ---- HW ---- HW ---- HW ----
 72
    65
 73
     3
 40
0.9
 49
0.5
 74
     0
 49
-0.2
 74
     2
 75
     0
340
26
 46
0.1
 50
0.0
 44
-0.1
 45
-0.05
  9
HW
 49
-0.2
 74
     0
  0
LTYPE
  5
7C
330
5
100
AcDbSymbolTableRecord
100
AcDbLinetypeTableRecord
  2
GAS_LINE
 70
     0
  3
Gas line ----GAS----GAS----GAS----GAS----GAS---
 72
    65
 73
     3
 40
0.95
 49
0.5
 74
     0
 49
-0.2
 74
     2
 75
     0
340
26
 46
0.1
 50
0.0
 44
-0.1
 45
-0.05
  9
GAS
 49
-0.25
 74
     0
  0
LTYPE
  5
7D
330
5
100
AcDbSymbolTableRecord
100
AcDbLinetypeTableRecord
  2
ZIGZAG
 70
     0
  3
Zig zag /\/\/\/\/\/\/\/\/\/\/\/\/\/\/\/\/\/\/\/
 72
    65
 73
     4
 40
0.8001000000000001
 49
0.0001
 74
     0
 49
-0.2
 74
     4
 75
   131
340
76
 46
0.2
 50
0.0
 44
-0.2
 45
0.0
 49
-0.4
 74
     4
 75
   131
340
76
 46
0.2
 50
180.0
 44
0.2
 45
0.0
 49
-0.2
 74
     0
  0
ENDTAB
  0
TABLE
  2
LAYER
  5
2
330
0
100
AcDbSymbolTable
 70
    25
  0
LAYER
  5
25
330
2
100
AcDbSymbolTableRecord
100
AcDbLayerTableRecord
  2
0
 70
     0
 62
     7
  6
Continuous
370
    -3
390
F
  0
LAYER
  5
81
330
2
100
AcDbSymbolTableRecord
100
AcDbLayerTableRecord
  2
Border (ANSI)
 70
     0
 62
     7
  6
Continuous
370
    70
390
F
  0
LAYER
  5
86
330
2
100
AcDbSymbolTableRecord
100
AcDbLayerTableRecord
  2
Dimension (ANSI)
 70
     0
 62
     7
  6
Continuous
370
    25
390
F
  0
LAYER
  5
8E
330
2
100
AcDbSymbolTableRecord
100
AcDbLayerTableRecord
  2
Symbol (ANSI)
 70
     0
 62
     7
  6
Continuous
370
    25
390
F
  0
LAYER
  5
91
330
2
100
AcDbSymbolTableRecord
100
AcDbLayerTableRecord
  2
Visible (ANSI)
 70
     0
 62
     7
  6
Continuous
370
    50
390
F
  0
ENDTAB
  0
TABLE
  2
STYLE
  5
3
330
0
100
AcDbSymbolTable
 70
    12
  0
STYLE
  5
26
330
3
100
AcDbSymbolTableRecord
100
AcDbTextStyleTableRecord
  2
Standard
 70
     0
 40
0.0
 41
1.0
 50
0.0
 71
     0
 42
0.2
  3
TAHOMA.TTF
  4

1001
ACAD
1000
Tahoma
1071
      256
  0
STYLE
  5
76
330
3
100
AcDbSymbolTableRecord
100
AcDbTextStyleTableRecord
  2

 70
     1
 40
0.0
 41
1.0
 50
0.0
 71
     0
 42
0.2
  3
ltypeshp.shx
  4

  0
STYLE
  5
96
330
3
100
AcDbSymbolTableRecord
100
AcDbTextStyleTableRecord
  2
Label Text (ANSI)
 70
     0
 40
0.0
 41
1.0
 50
0.0
 71
     0
 42
0.2
  3
TAHOMA.TTF
  4

1001
ACAD
1000
Tahoma
1071
      256
  0
STYLE
  5
97
330
3
100
AcDbSymbolTableRecord
100
AcDbTextStyleTableRecord
  2
Label Text (DIN)
 70
     0
 40
0.0
 41
1.0
 50
0.0
 71
     0
 42
0.2
  3
isocpeur.ttf
  4

1001
ACAD
1000
ISOCPEUR
1071
      256
  0
STYLE
  5
98
330
3
100
AcDbSymbolTableRecord
100
AcDbTextStyleTableRecord
  2
Label Text (ISO)
 70
     0
 40
0.0
 41
1.0
 50
0.0
 71
     0
 42
0.2
  3
TAHOMA.TTF
  4

1001
ACAD
1000
Tahoma
1071
      256
  0
STYLE
  5
99
330
3
100
AcDbSymbolTableRecord
100
AcDbTextStyleTableRecord
  2
Label Text (JIS)
 70
     0
 40
0.0
 41
1.0
 50
0.0
 71
     0
 42
0.2
  3
TAHOMA.TTF
  4

1001
ACAD
1000
Tahoma
1071
      256
  0
STYLE
  5
9A
330
3
100
AcDbSymbolTableRecord
100
AcDbTextStyleTableRecord
  2
Note Text (ANSI)
 70
     0
 40
0.0
 41
1.0
 50
0.0
 71
     0
 42
0.2
  3
TAHOMA.TTF
  4

1001
ACAD
1000
Tahoma
1071
      256
  0
STYLE
  5
9B
330
3
100
AcDbSymbolTableRecord
100
AcDbTextStyleTableRecord
  2
Note Text (DIN)
 70
     0
 40
0.0
 41
1.0
 50
0.0
 71
     0
 42
0.2
  3
isocpeur.ttf
  4

1001
ACAD
1000
ISOCPEUR
1071
      256
  0
STYLE
  5
9C
330
3
100
AcDbSymbolTableRecord
100
AcDbTextStyleTableRecord
  2
Note Text (ISO)
 70
     0
 40
0.0
 41
1.0
 50
0.0
 71
     0
 42
0.2
  3
TAHOMA.TTF
  4

1001
ACAD
1000
Tahoma
1071
      256
  0
STYLE
  5
9D
330
3
100
AcDbSymbolTableRecord
100
AcDbTextStyleTableRecord
  2
Note Text (JIS)
 70
     0
 40
0.0
 41
1.0
 50
0.0
 71
     0
 42
0.2
  3
TAHOMA.TTF
  4

1001
ACAD
1000
Tahoma
1071
      256
  0
STYLE
  5
F3
330
3
100
AcDbSymbolTableRecord
100
AcDbTextStyleTableRecord
  2
Text Style29
 70
     0
 40
0.0
 41
1.0
 50
0.0
 71
     0
 42
0.2
  3
TAHOMA.TTF
  4

1001
ACAD
1000
Tahoma
1071
      256
  0
STYLE
  5
1C3
330
3
100
AcDbSymbolTableRecord
100
AcDbTextStyleTableRecord
  2
Text Style6
 70
     0
 40
0.0
 41
1.0
 50
0.0
 71
     0
 42
0.2
  3
AIGDT___.TTF
  4

1001
ACAD
1000
AIGDT
1071
      514
  0
ENDTAB
  0
TABLE
  2
VIEW
  5
6
330
0
100
AcDbSymbolTable
 70
     0
  0
ENDTAB
  0
TABLE
  2
UCS
  5
7
330
0
100
AcDbSymbolTable
 70
     0
  0
ENDTAB
  0
TABLE
  2
APPID
  5
9
330
0
100
AcDbSymbolTable
 70
     1
  0
APPID
  5
27
330
9
100
AcDbSymbolTableRecord
100
AcDbRegAppTableRecord
  2
ACAD
 70
     0
  0
ENDTAB
  0
TABLE
  2
DIMSTYLE
  5
A
330
0
100
AcDbSymbolTable
 70
    17
100
AcDbDimStyleTable
 71
     0
  0
DIMSTYLE
105
3F
330
A
100
AcDbSymbolTableRecord
100
AcDbDimStyleTableRecord
  2
Standard
 70
     0
340
26
  0
DIMSTYLE
105
9E
330
A
100
AcDbSymbolTableRecord
100
AcDbDimStyleTableRecord
  2
Architectural (ANSI)
 70
     0
 40
0.25
 41
0.0984251946210861
 42
0.0625
 43
0.2362204724409449
 44
0.125
 45
0.00000001
 46
0.3937007874015748
 78
     4
 79
     3
140
0.1200000047683716
144
0.0833333333333333
147
0.031496062992126
171
     1
176
   256
177
   256
178
   256
272
     2
274
     1
276
     2
277
     4
284
    12
286
    12
340
9A
371
    -1
372
    -1
  0
DIMSTYLE
105
9F
330
A
100
AcDbSymbolTableRecord
100
AcDbDimStyleTableRecord
  2
Architectural (ANSI)$7
 70
     0
 40
0.25
 41
0.0984251946210861
 42
0.0625
 43
0.2362204724409449
 44
0.125
 45
0.00000001
 46
0.3937007874015748
 78
     4
 79
     3
140
0.1200000047683716
144
0.0833333333333333
147
0.031496062992126
171
     1
176
   256
177
   256
178
   256
272
     2
274
     1
276
     2
277
     4
284
    12
286
    12
340
9A
371
    -1
372
    -1
  0
DIMSTYLE
105
A0
330
A
100
AcDbSymbolTableRecord
100
AcDbDimStyleTableRecord
  2
blind-dep-tap
 70
     0
  3
 in
 40
0.25
 41
0.0984251946210861
 42
0.0625
 43
0.2362204724409449
 44
0.125
 45
0.00000001
 46
0.3937007874015748
140
0.1200000047683716
147
0.031496062992126
171
     1
176
   256
177
   256
178
   256
274
     1
340
9A
371
    -1
372
    -1
  0
DIMSTYLE
105
A1
330
A
100
AcDbSymbolTableRecord
100
AcDbDimStyleTableRecord
  2
blind-dep-tap$7
 70
     0
  3
 in
 40
0.25
 41
0.0984251946210861
 42
0.0625
 43
0.2362204724409449
 44
0.125
 45
0.00000001
 46
0.3937007874015748
140
0.1200000047683716
147
0.031496062992126
171
     1
176
   256
177
   256
178
   256
274
     1
340
9A
371
    -1
372
    -1
  0
DIMSTYLE
105
A2
330
A
100
AcDbSymbolTableRecord
100
AcDbDimStyleTableRecord
  2
Default - Fraction (ANSI)
 70
     0
 40
0.25
 41
0.0984251946210861
 42
0.0625
 43
0.2362204724409449
 44
0.125
 45
0.00000001
 46
0.3937007874015748
 78
    12
 79
     3
140
0.1200000047683716
147
0.031496062992126
171
     1
176
   256
177
   256
178
   256
272
     2
274
     1
276
     2
277
     5
284
    12
286
    12
340
9A
371
    -1
372
    -1
  0
DIMSTYLE
105
A3
330
A
100
AcDbSymbolTableRecord
100
AcDbDimStyleTableRecord
  2
Default - Fraction (ANSI)$7
 70
     0
 40
0.25
 41
0.0984251946210861
 42
0.0625
 43
0.2362204724409449
 44
0.125
 45
0.00000001
 46
0.3937007874015748
 78
    12
 79
     3
140
0.1200000047683716
147
0.031496062992126
171
     1
176
   256
177
   256
178
   256
272
     2
274
     1
276
     2
277
     5
284
    12
286
    12
340
9A
371
    -1
372
    -1
  0
DIMSTYLE
105
A4
330
A
100
AcDbSymbolTableRecord
100
AcDbDimStyleTableRecord
  2
Default - mm (ANSI)
 70
     0
 40
0.25
 41
0.0984251946210861
 42
0.063
 43
0.2362204724409449
 44
0.125
 45
0.00000001
 46
0.3937007874015748
 73
     0
140
0.1200000047683716
143
1.0
144
25.4
147
0.031496062992126
171
     1
176
   256
177
   256
178
   256
179
     1
271
     2
272
     2
274
     1
340
9A
371
    -1
372
    -1
  0
DIMSTYLE
105
A5
330
A
100
AcDbSymbolTableRecord
100
AcDbDimStyleTableRecord
  2
Default - mm (ANSI)$7
 70
     0
 40
0.25
 41
0.0984251946210861
 42
0.063
 43
0.2362204724409449
 44
0.125
 45
0.00000001
 46
0.3937007874015748
 73
     0
140
0.1200000047683716
143
1.0
144
25.4
147
0.031496062992126
171
     1
176
   256
177
   256
178
   256
179
     1
271
     2
272
     2
274
     1
340
9A
371
    -1
372
    -1
  0
DIMSTYLE
105
A6
330
A
100
AcDbSymbolTableRecord
100
AcDbDimStyleTableRecord
  2
Default - mm [in] (ANSI)
 70
     0
  4
 in
 40
0.25
 41
0.0984251946210861
 42
0.063
 43
0.25
 44
0.125
 45
0.00000001
 46
0.3937007874015748
 73
     0
 78
     4
 79
     1
140
0.1200000047683716
143
0.03937
144
25.4
147
0.031496062992126
170
     1
171
     3
176
   256
177
   256
178
   256
179
     1
271
     2
272
     2
274
     3
284
     4
286
     4
340
9A
371
    -1
372
    -1
  0
DIMSTYLE
105
A7
330
A
100
AcDbSymbolTableRecord
100
AcDbDimStyleTableRecord
  2
Default - mm [in] (ANSI)$7
 70
     0
  4
 in
 40
0.25
 41
0.0984251946210861
 42
0.063
 43
0.25
 44
0.125
 45
0.00000001
 46
0.3937007874015748
 73
     0
 78
     4
 79
     1
140
0.1200000047683716
143
0.03937
144
25.4
147
0.031496062992126
170
     1
171
     3
176
   256
177
   256
178
   256
179
     1
271
     2
272
     2
274
     3
284
     4
286
     4
340
9A
371
    -1
372
    -1
  0
DIMSTYLE
105
A8
330
A
100
AcDbSymbolTableRecord
100
AcDbDimStyleTableRecord
  2
Default (ANSI)
 70
     0
  3
 in
 40
0.25
 41
0.0984251946210861
 42
0.0625
 43
0.2362204724409449
 44
0.125
 45
0.00000001
 46
0.3937007874015748
140
0.1200000047683716
147
0.031496062992126
171
     1
176
   256
177
   256
178
   256
271
     3
274
     1
340
9A
371
    -1
372
    -1
  0
DIMSTYLE
105
A9
330
A
100
AcDbSymbolTableRecord
100
AcDbDimStyleTableRecord
  2
Default (ANSI)$7
 70
     0
  3
 in
 40
0.25
 41
0.0984251946210861
 42
0.0625
 43
0.2362204724409449
 44
0.125
 45
0.00000001
 46
0.3937007874015748
140
0.1200000047683716
147
0.031496062992126
171
     1
176
   256
177
   256
178
   256
271
     3
274
     1
340
9A
371
    -1
372
    -1
  0
DIMSTYLE
105
B8
330
A
100
AcDbSymbolTableRecord
100
AcDbDimStyleTableRecord
  2
Miscellaneous Object (ANSI)
 70
     0
 40
0.25
 41
0.1968503892421722
 42
0.0625
 43
0.2362204724409449
 44
0.125
 45
0.00000001
 46
0.3937007874015748
140
0.1799999922513962
146
0.666666721856155
147
0.031496062992126
171
     1
176
   256
177
   256
178
   256
271
     2
272
     2
274
     1
340
96
341
AA
371
    -1
372
    -1
  0
DIMSTYLE
105
B9
330
A
100
AcDbSymbolTableRecord
100
AcDbDimStyleTableRecord
  2
Miscellaneous Object (ANSI)$7
 70
     0
 40
0.25
 41
0.1959999948740005
 42
0.0625
 43
0.2362204724409449
 44
0.125
 45
0.00000001
 46
0.3937007874015748
140
0.1799999922513962
146
0.666666721856155
147
0.031496062992126
171
     1
176
   256
177
   256
178
   256
271
     2
272
     2
274
     1
340
96
341
AA
371
    -1
372
    -1
  0
DIMSTYLE
105
BA
330
A
100
AcDbSymbolTableRecord
100
AcDbDimStyleTableRecord
  2
Alternate (ANSI)
 70
     0
 40
0.25
 41
0.0979999974370003
340
26
342
BB
  0
DIMSTYLE
105
CC
330
A
100
AcDbSymbolTableRecord
100
AcDbDimStyleTableRecord
  2
Datum (ANSI)
 70
     0
 40
0.25
 41
0.0979999974370003
340
26
342
BB
  0
ENDTAB
  0
TABLE
  2
BLOCK_RECORD
  5
1
330
0
100
AcDbSymbolTable
 70
    21
  0
BLOCK_RECORD
  5
37
330
1
100
AcDbSymbolTableRecord
100
AcDbBlockTableRecord
  2
*Model_Space
340
3A
  0
BLOCK_RECORD
  5
33
330
1
100
AcDbSymbolTableRecord
100
AcDbBlockTableRecord
  2
*Paper_Space
340
36
  0
BLOCK_RECORD
  5
3B
330
1
100
AcDbSymbolTableRecord
100
AcDbBlockTableRecord
  2
*Paper_Space0
340
3E
  0
BLOCK_RECORD
  5
AA
330
1
100
AcDbSymbolTableRecord
100
AcDbBlockTableRecord
  2
Filled-1
340
0
  0
BLOCK_RECORD
  5
BB
330
1
100
AcDbSymbolTableRecord
100
AcDbBlockTableRecord
  2
_Closed
340
0
  0
BLOCK_RECORD
  5
C2
330
1
100
AcDbSymbolTableRecord
100
AcDbBlockTableRecord
  2
DatumFilled45
340
0
  0
BLOCK_RECORD
  5
CD
330
1
100
AcDbSymbolTableRecord
100
AcDbBlockTableRecord
  2
Borders Default Border
340
0
102
{BLKREFS
331
FE
102
}
  0
BLOCK_RECORD
  5
127
330
1
100
AcDbSymbolTableRecord
100
AcDbBlockTableRecord
  2
Origin Indicator Symbol1
340
0
102
{BLKREFS
331
14D
102
}
  0
BLOCK_RECORD
  5
177
330
1
100
AcDbSymbolTableRecord
100
AcDbBlockTableRecord
  2
Origin Indicator Symbol2
340
0
102
{BLKREFS
331
19D
102
}
  0
BLOCK_RECORD
  5
19E
330
1
100
AcDbSymbolTableRecord
100
AcDbBlockTableRecord
  2
Hole Table1
340
0
102
{BLKREFS
331
222
102
}
  0
BLOCK_RECORD
  5
223
330
1
100
AcDbSymbolTableRecord
100
AcDbBlockTableRecord
  2
Leader Text1
340
0
102
{BLKREFS
331
234
102
}
  0
BLOCK_RECORD
  5
235
330
1
100
AcDbSymbolTableRecord
100
AcDbBlockTableRecord
  2
Leader Text2
340
0
102
{BLKREFS
331
246
102
}
  0
BLOCK_RECORD
  5
247
330
1
100
AcDbSymbolTableRecord
100
AcDbBlockTableRecord
  2
Leader Text3
340
0
102
{BLKREFS
331
258
102
}
  0
BLOCK_RECORD
  5
259
330
1
100
AcDbSymbolTableRecord
100
AcDbBlockTableRecord
  2
Leader Text4
340
0
102
{BLKREFS
331
26A
102
}
  0
BLOCK_RECORD
  5
26B
330
1
100
AcDbSymbolTableRecord
100
AcDbBlockTableRecord
  2
Leader Text5
340
0
102
{BLKREFS
331
27C
102
}
  0
BLOCK_RECORD
  5
27D
330
1
100
AcDbSymbolTableRecord
100
AcDbBlockTableRecord
  2
Leader Text6
340
0
102
{BLKREFS
331
28E
102
}
  0
BLOCK_RECORD
  5
28F
330
1
100
AcDbSymbolTableRecord
100
AcDbBlockTableRecord
  2
Hole Table2
340
0
102
{BLKREFS
331
31F
102
}
  0
BLOCK_RECORD
  5
320
330
1
100
AcDbSymbolTableRecord
100
AcDbBlockTableRecord
  2
Leader Text7
340
0
102
{BLKREFS
331
331
102
}
  0
BLOCK_RECORD
  5
332
330
1
100
AcDbSymbolTableRecord
100
AcDbBlockTableRecord
  2
Leader Text8
340
0
102
{BLKREFS
331
343
102
}
  0
BLOCK_RECORD
  5
344
330
1
100
AcDbSymbolTableRecord
100
AcDbBlockTableRecord
  2
Leader Text9
340
0
102
{BLKREFS
331
355
102
}
  0
BLOCK_RECORD
  5
356
330
1
100
AcDbSymbolTableRecord
100
AcDbBlockTableRecord
  2
Leader Text10
340
0
102
{BLKREFS
331
367
102
}
  0
BLOCK_RECORD
  5
368
330
1
100
AcDbSymbolTableRecord
100
AcDbBlockTableRecord
  2
Leader Text11
340
0
102
{BLKREFS
331
379
102
}
  0
BLOCK_RECORD
  5
37A
330
1
100
AcDbSymbolTableRecord
100
AcDbBlockTableRecord
  2
Leader Text12
340
0
102
{BLKREFS
331
38B
102
}
  0
ENDTAB
  0
ENDSEC
  0
SECTION
  2
BLOCKS
  0
BLOCK
  5
38
330
37
100
AcDbEntity
  8
0
100
AcDbBlockBegin
  2
*Model_Space
 70
     0
 10
0.0
 20
0.0
 30
0.0
  3
*Model_Space
  1

  0
ENDBLK
  5
39
330
37
100
AcDbEntity
  8
0
100
AcDbBlockEnd
  0
BLOCK
  5
34
330
33
100
AcDbEntity
 67
     1
  8
0
100
AcDbBlockBegin
  2
*Paper_Space
 70
     0
 10
0.0
 20
0.0
 30
0.0
  3
*Paper_Space
  1

  0
ENDBLK
  5
35
330
33
100
AcDbEntity
 67
     1
  8
0
100
AcDbBlockEnd
  0
BLOCK
  5
3C
330
3B
100
AcDbEntity
 67
     1
  8
0
100
AcDbBlockBegin
  2
*Paper_Space0
 70
     0
 10
0.0
 20
0.0
 30
0.0
  3
*Paper_Space0
  1

  0
ENDBLK
  5
3D
330
3B
100
AcDbEntity
 67
     1
  8
0
100
AcDbBlockEnd
  0
BLOCK
  5
AB
330
AA
100
AcDbEntity
  8
0
100
AcDbBlockBegin
  2
Filled-1
 70
     0
 10
0.0
 20
0.0
 30
0.0
  3
Filled-1
  1

  0
LINE
  5
AD
330
AA
100
AcDbEntity
  8
0
 62
     0
100
AcDbLine
 10
-0.9999999999999998
 20
0.0
 30
0.0
 11
0.0
 21
0.0
 31
0.0
  0
POLYLINE
  5
AE
330
AA
100
AcDbEntity
  8
0
 62
     0
100
AcDb2dPolyline
 66
     1
 10
0.0
 20
0.0
 30
0.0
 70
   128
  0
VERTEX
  5
AF
330
AE
100
AcDbEntity
  8
0
 62
     0
100
AcDbVertex
100
AcDb2dVertex
 10
-0.9999999999999998
 20
-0.0994897959183674
 30
0.0
  0
VERTEX
  5
B0
330
AE
100
AcDbEntity
  8
0
 62
     0
100
AcDbVertex
100
AcDb2dVertex
 10
0.0
 20
0.0
 30
0.0
  0
VERTEX
  5
B2
330
AE
100
AcDbEntity
  8
0
 62
     0
100
AcDbVertex
100
AcDb2dVertex
 10
-0.9999999999999998
 20
0.0994897959183674
 30
0.0
  0
VERTEX
  5
B3
330
AE
100
AcDbEntity
  8
0
 62
     0
100
AcDbVertex
100
AcDb2dVertex
 10
-0.9999999999999998
 20
-0.0994897959183674
 30
0.0
  0
SEQEND
  5
B1
330
AE
100
AcDbEntity
  8
0
 62
     0
  0
SOLID
  5
B4
330
AA
100
AcDbEntity
  8
0
 62
     0
100
AcDbTrace
 10
-0.9999999999999998
 20
-0.0994897959183674
 30
0.0
 11
0.0
 21
0.0
 31
0.0
 12
-0.9999999999999998
 22
0.0994897959183674
 32
0.0
 13
-0.9999999999999998
 23
-0.0994897959183674
 33
0.0
  0
LINE
  5
B5
330
AA
100
AcDbEntity
  8
0
 62
     0
100
AcDbLine
 10
-0.9999999999999998
 20
-0.0994897959183674
 30
0.0
 11
0.0
 21
0.0
 31
0.0
  0
LINE
  5
B6
330
AA
100
AcDbEntity
  8
0
 62
     0
100
AcDbLine
 10
0.0
 20
0.0
 30
0.0
 11
-0.9999999999999998
 21
0.0994897959183674
 31
0.0
  0
LINE
  5
B7
330
AA
100
AcDbEntity
  8
0
 62
     0
100
AcDbLine
 10
-0.9999999999999998
 20
0.0994897959183674
 30
0.0
 11
-0.9999999999999998
 21
-0.0994897959183674
 31
0.0
  0
ENDBLK
  5
AC
330
AA
100
AcDbEntity
  8
0
100
AcDbBlockEnd
  0
BLOCK
  5
C0
330
BB
100
AcDbEntity
  8
0
100
AcDbBlockBegin
  2
_Closed
 70
     0
 10
0.0
 20
0.0
 30
0.0
  3
_Closed
  1

  0
LINE
  5
BC
330
BB
100
AcDbEntity
  8
0
  6
ByBlock
 62
     0
370
    -2
100
AcDbLine
 10
-1.0
 20
0.1666666666666666
 30
0.0
 11
0.0
 21
0.0
 31
0.0
  0
LINE
  5
BD
330
BB
100
AcDbEntity
  8
0
  6
ByBlock
 62
     0
370
    -2
100
AcDbLine
 10
0.0
 20
0.0
 30
0.0
 11
-1.0
 21
-0.1666666666666666
 31
0.0
  0
LINE
  5
BE
330
BB
100
AcDbEntity
  8
0
  6
ByBlock
 62
     0
370
    -2
100
AcDbLine
 10
-1.0
 20
0.1666666666666666
 30
0.0
 11
-1.0
 21
-0.1666666666666666
 31
0.0
  0
LINE
  5
BF
330
BB
100
AcDbEntity
  8
0
  6
ByBlock
 62
     0
370
    -2
100
AcDbLine
 10
0.0
 20
0.0
 30
0.0
 11
-1.0
 21
0.0
 31
0.0
  0
ENDBLK
  5
C1
330
BB
100
AcDbEntity
  8
0
100
AcDbBlockEnd
  0
BLOCK
  5
C3
330
C2
100
AcDbEntity
  8
0
100
AcDbBlockBegin
  2
DatumFilled45
 70
     0
 10
0.0
 20
0.0
 30
0.0
  3
DatumFilled45
  1

  0
POLYLINE
  5
C5
330
C2
100
AcDbEntity
  8
0
 62
     0
100
AcDb2dPolyline
 66
     1
 10
0.0
 20
0.0
 30
0.0
 70
   128
  0
VERTEX
  5
C6
330
C5
100
AcDbEntity
  8
0
 62
     0
100
AcDbVertex
100
AcDb2dVertex
 10
0.0
 20
0.9999999999999998
 30
0.0
  0
VERTEX
  5
C7
330
C5
100
AcDbEntity
  8
0
 62
     0
100
AcDbVertex
100
AcDb2dVertex
 10
0.0
 20
-0.9999999999999998
 30
0.0
  0
VERTEX
  5
C9
330
C5
100
AcDbEntity
  8
0
 62
     0
100
AcDbVertex
100
AcDb2dVertex
 10
-0.9999999999999998
 20
0.0
 30
0.0
  0
VERTEX
  5
CA
330
C5
100
AcDbEntity
  8
0
 62
     0
100
AcDbVertex
100
AcDb2dVertex
 10
0.0
 20
0.9999999999999998
 30
0.0
  0
SEQEND
  5
C8
330
C5
100
AcDbEntity
  8
0
 62
     0
  0
SOLID
  5
CB
330
C2
100
AcDbEntity
  8
0
 62
     0
100
AcDbTrace
 10
0.0
 20
0.9999999999999998
 30
0.0
 11
0.0
 21
-0.9999999999999998
 31
0.0
 12
-0.9999999999999998
 22
0.0
 32
0.0
 13
0.0
 23
0.9999999999999998
 33
0.0
  0
ENDBLK
  5
C4
330
C2
100
AcDbEntity
  8
0
100
AcDbBlockEnd
  0
BLOCK
  5
CE
330
CD
100
AcDbEntity
  8
0
100
AcDbBlockBegin
  2
Borders Default Border
 70
     0
 10
0.0
 20
0.0
 30
0.0
  3
Borders Default Border
  1

  0
POLYLINE
  5
D0
330
CD
100
AcDbEntity
  8
Border (ANSI)
100
AcDb2dPolyline
 66
     1
 10
0.0
 20
0.0
 30
0.0
 70
   128
  0
VERTEX
  5
D1
330
D0
100
AcDbEntity
  8
Border (ANSI)
100
AcDbVertex
100
AcDb2dVertex
 10
0.380000002740875
 20
0.380000002740875
 30
0.0
  0
VERTEX
  5
D2
330
D0
100
AcDbEntity
  8
Border (ANSI)
100
AcDbVertex
100
AcDb2dVertex
 10
0.380000002740875
 20
8.119999893068328
 30
0.0
  0
VERTEX
  5
D4
330
D0
100
AcDbEntity
  8
Border (ANSI)
100
AcDbVertex
100
AcDb2dVertex
 10
10.62000004325326
 20
8.119999893068328
 30
0.0
  0
VERTEX
  5
D5
330
D0
100
AcDbEntity
  8
Border (ANSI)
100
AcDbVertex
100
AcDb2dVertex
 10
10.62000004325326
 20
0.380000002740875
 30
0.0
  0
VERTEX
  5
D6
330
D0
100
AcDbEntity
  8
Border (ANSI)
100
AcDbVertex
100
AcDb2dVertex
 10
0.380000002740875
 20
0.380000002740875
 30
0.0
  0
SEQEND
  5
D3
330
D0
100
AcDbEntity
  8
Border (ANSI)
  0
POLYLINE
  5
D7
330
CD
100
AcDbEntity
  8
Border (ANSI)
100
AcDb2dPolyline
 66
     1
 10
0.0
 20
0.0
 30
0.0
 70
   128
  0
VERTEX
  5
D8
330
D7
100
AcDbEntity
  8
Border (ANSI)
100
AcDbVertex
100
AcDb2dVertex
 10
5.500000105129451
 20
0.1299999947623005
 30
0.0
  0
VERTEX
  5
D9
330
D7
100
AcDbEntity
  8
Border (ANSI)
100
AcDbVertex
100
AcDb2dVertex
 10
5.500000105129451
 20
0.380000002740875
 30
0.0
  0
VERTEX
  5
DB
330
D7
100
AcDbEntity
  8
Border (ANSI)
100
AcDbVertex
100
AcDb2dVertex
 10
5.413397466103861
 20
0.2300000096869281
 30
0.0
  0
VERTEX
  5
DC
330
D7
100
AcDbEntity
  8
Border (ANSI)
100
AcDbVertex
100
AcDb2dVertex
 10
5.586602368692712
 20
0.2300000096869281
 30
0.0
  0
VERTEX
  5
DD
330
D7
100
AcDbEntity
  8
Border (ANSI)
100
AcDbVertex
100
AcDb2dVertex
 10
5.500000105129451
 20
0.380000002740875
 30
0.0
  0
SEQEND
  5
DA
330
D7
100
AcDbEntity
  8
Border (ANSI)
  0
POLYLINE
  5
DE
330
CD
100
AcDbEntity
  8
Border (ANSI)
100
AcDb2dPolyline
 66
     1
 10
0.0
 20
0.0
 30
0.0
 70
   128
  0
VERTEX
  5
DF
330
DE
100
AcDbEntity
  8
Border (ANSI)
100
AcDbVertex
100
AcDb2dVertex
 10
5.500000105129451
 20
8.369999983179287
 30
0.0
  0
VERTEX
  5
E0
330
DE
100
AcDbEntity
  8
Border (ANSI)
100
AcDbVertex
100
AcDb2dVertex
 10
5.500000105129451
 20
8.119999893068328
 30
0.0
  0
VERTEX
  5
E2
330
DE
100
AcDbEntity
  8
Border (ANSI)
100
AcDbVertex
100
AcDb2dVertex
 10
5.413397466103861
 20
8.270000097319835
 30
0.0
  0
VERTEX
  5
E3
330
DE
100
AcDbEntity
  8
Border (ANSI)
100
AcDbVertex
100
AcDb2dVertex
 10
5.586602368692712
 20
8.270000097319835
 30
0.0
  0
VERTEX
  5
E4
330
DE
100
AcDbEntity
  8
Border (ANSI)
100
AcDbVertex
100
AcDb2dVertex
 10
5.500000105129451
 20
8.119999893068328
 30
0.0
  0
SEQEND
  5
E1
330
DE
100
AcDbEntity
  8
Border (ANSI)
  0
POLYLINE
  5
E5
330
CD
100
AcDbEntity
  8
Border (ANSI)
100
AcDb2dPolyline
 66
     1
 10
0.0
 20
0.0
 30
0.0
 70
   128
  0
VERTEX
  5
E6
330
E5
100
AcDbEntity
  8
Border (ANSI)
100
AcDbVertex
100
AcDb2dVertex
 10
0.1299999947623005
 20
4.250000030036986
 30
0.0
  0
VERTEX
  5
E7
330
E5
100
AcDbEntity
  8
Border (ANSI)
100
AcDbVertex
100
AcDb2dVertex
 10
0.380000002740875
 20
4.250000030036986
 30
0.0
  0
VERTEX
  5
E9
330
E5
100
AcDbEntity
  8
Border (ANSI)
100
AcDbVertex
100
AcDb2dVertex
 10
0.2300000096869281
 20
4.336602669062576
 30
0.0
  0
VERTEX
  5
EA
330
E5
100
AcDbEntity
  8
Border (ANSI)
100
AcDbVertex
100
AcDb2dVertex
 10
0.2300000096869281
 20
4.163397391011395
 30
0.0
  0
VERTEX
  5
EB
330
E5
100
AcDbEntity
  8
Border (ANSI)
100
AcDbVertex
100
AcDb2dVertex
 10
0.380000002740875
 20
4.250000030036986
 30
0.0
  0
SEQEND
  5
E8
330
E5
100
AcDbEntity
  8
Border (ANSI)
  0
POLYLINE
  5
EC
330
CD
100
AcDbEntity
  8
Border (ANSI)
100
AcDb2dPolyline
 66
     1
 10
0.0
 20
0.0
 30
0.0
 70
   128
  0
VERTEX
  5
ED
330
EC
100
AcDbEntity
  8
Border (ANSI)
100
AcDbVertex
100
AcDb2dVertex
 10
10.87000013336422
 20
4.250000030036986
 30
0.0
  0
VERTEX
  5
EE
330
EC
100
AcDbEntity
  8
Border (ANSI)
100
AcDbVertex
100
AcDb2dVertex
 10
10.62000004325326
 20
4.250000030036986
 30
0.0
  0
VERTEX
  5
F0
330
EC
100
AcDbEntity
  8
Border (ANSI)
100
AcDbVertex
100
AcDb2dVertex
 10
10.77000024750476
 20
4.336602669062576
 30
0.0
  0
VERTEX
  5
F1
330
EC
100
AcDbEntity
  8
Border (ANSI)
100
AcDbVertex
100
AcDb2dVertex
 10
10.77000024750476
 20
4.163397391011395
 30
0.0
  0
VERTEX
  5
F2
330
EC
100
AcDbEntity
  8
Border (ANSI)
100
AcDbVertex
100
AcDb2dVertex
 10
10.62000004325326
 20
4.250000030036986
 30
0.0
  0
SEQEND
  5
EF
330
EC
100
AcDbEntity
  8
Border (ANSI)
  0
MTEXT
  5
F4
330
CD
100
AcDbEntity
  8
Border (ANSI)
100
AcDbMText
 10
8.24092395498058
 20
8.16
 30
0.0
 40
0.1200000014830762
 41
0.0
 71
     7
 72
     1
  1
1
  7
Text Style29
 73
     1
 44
1.0
1001
ACAD
1000
MTEXTBEGIN
1070
    73
1070
     1
1070
    44
1040
1.0
1070
    74
1070
     0
1000
MTEXTEND
  0
MTEXT
  5
F7
330
CD
100
AcDbEntity
  8
Border (ANSI)
100
AcDbMText
 10
8.24092395498058
 20
0.2199999985169238
 30
0.0
 40
0.1200000014830762
 41
0.0
 71
     7
 72
     1
  1
1
  7
Text Style29
 73
     1
 44
1.0
1001
ACAD
1000
MTEXTBEGIN
1070
    73
1070
     1
1070
    44
1040
1.0
1070
    74
1070
     0
1000
MTEXTEND
  0
MTEXT
  5
F8
330
CD
100
AcDbEntity
  8
Border (ANSI)
100
AcDbMText
 10
2.722276993858532
 20
8.16
 30
0.0
 40
0.1200000014830762
 41
0.0
 71
     7
 72
     1
  1
2
  7
Text Style29
 73
     1
 44
1.0
1001
ACAD
1000
MTEXTBEGIN
1070
    73
1070
     1
1070
    44
1040
1.0
1070
    74
1070
     0
1000
MTEXTEND
  0
MTEXT
  5
F9
330
CD
100
AcDbEntity
  8
Border (ANSI)
100
AcDbMText
 10
2.722276993858532
 20
0.2199999985169238
 30
0.0
 40
0.1200000014830762
 41
0.0
 71
     7
 72
     1
  1
2
  7
Text Style29
 73
     1
 44
1.0
1001
ACAD
1000
MTEXTBEGIN
1070
    73
1070
     1
1070
    44
1040
1.0
1070
    74
1070
     0
1000
MTEXTEND
  0
MTEXT
  5
FA
330
CD
100
AcDbEntity
  8
Border (ANSI)
100
AcDbMText
 10
0.2281865791448458
 20
2.064999999258461
 30
0.0
 40
0.1200000014830762
 41
0.0
 71
     7
 72
     1
  1
A
  7
Text Style29
 73
     1
 44
1.0
1001
ACAD
1000
MTEXTBEGIN
1070
    73
1070
     1
1070
    44
1040
1.0
1070
    74
1070
     0
1000
MTEXTEND
  0
MTEXT
  5
FB
330
CD
100
AcDbEntity
  8
Border (ANSI)
100
AcDbMText
 10
10.66818658062792
 20
2.064999999258461
 30
0.0
 40
0.1200000014830762
 41
0.0
 71
     7
 72
     1
  1
A
  7
Text Style29
 73
     1
 44
1.0
1001
ACAD
1000
MTEXTBEGIN
1070
    73
1070
     1
1070
    44
1040
1.0
1070
    74
1070
     0
1000
MTEXTEND
  0
MTEXT
  5
FC
330
CD
100
AcDbEntity
  8
Border (ANSI)
100
AcDbMText
 10
0.2554072225563169
 20
6.314999999258461
 30
0.0
 40
0.1200000014830762
 41
0.0
 71
     7
 72
     1
  1
B
  7
Text Style29
 73
     1
 44
1.0
1001
ACAD
1000
MTEXTBEGIN
1070
    73
1070
     1
1070
    44
1040
1.0
1070
    74
1070
     0
1000
MTEXTEND
  0
MTEXT
  5
FD
330
CD
100
AcDbEntity
  8
Border (ANSI)
100
AcDbMText
 10
10.69540722403939
 20
6.314999999258461
 30
0.0
 40
0.1200000014830762
 41
0.0
 71
     7
 72
     1
  1
B
  7
Text Style29
 73
     1
 44
1.0
1001
ACAD
1000
MTEXTBEGIN
1070
    73
1070
     1
1070
    44
1040
1.0
1070
    74
1070
     0
1000
MTEXTEND
  0
ENDBLK
  5
CF
330
CD
100
AcDbEntity
  8
0
100
AcDbBlockEnd
  0
BLOCK
  5
128
330
127
100
AcDbEntity
  8
0
100
AcDbBlockBegin
  2
Origin Indicator Symbol1
 70
     0
 10
0.0
 20
0.0
 30
0.0
  3
Origin Indicator Symbol1
  1

  0
CIRCLE
  5
12A
330
127
100
AcDbEntity
  8
Dimension (ANSI)
100
AcDbCircle
 10
6.894270974817478
 20
5.310299923566855
 30
0.0
 40
0.0984251968503937
  0
LINE
  5
12B
102
{ACAD_REACTORS
330
12D
102
}
330
127
100
AcDbEntity
  8
Dimension (ANSI)
100
AcDbLine
 10
6.894270974817478
 20
5.408725120417249
 30
0.0
 11
6.992696171667872
 21
5.310299923566855
 31
0.0
  0
ARC
  5
12C
102
{ACAD_REACTORS
330
12D
102
}
330
127
100
AcDbEntity
  8
Dimension (ANSI)
100
AcDbCircle
 10
6.894270974817478
 20
5.310299923566855
 30
0.0
 40
0.0984251968503937
100
AcDbArc
 50
0.0
 51
90.0
  0
HATCH
  5
12D
330
127
100
AcDbEntity
  8
Dimension (ANSI)
100
AcDbHatch
 10
0.0
 20
0.0
 30
0.0
210
0.0
220
0.0
230
1.0
  2
SOLID
 70
     1
 71
     1
 91
        1
 92
        0
 93
        2
 72
     1
 10
6.894270974817478
 20
5.408725120417249
 11
6.992696171667872
 21
5.310299923566855
 72
     2
 10
6.894270974817478
 20
5.310299923566855
 40
0.0984251968503937
 50
0.0
 51
90.0
 73
     1
 97
        2
330
12B
330
12C
 75
     0
 76
     1
 98
        1
 10
0.0
 20
0.0
  0
LINE
  5
12E
102
{ACAD_REACTORS
330
130
102
}
330
127
100
AcDbEntity
  8
Dimension (ANSI)
100
AcDbLine
 10
6.894270974817478
 20
5.211874726716462
 30
0.0
 11
6.795845777967084
 21
5.310299923566855
 31
0.0
  0
ARC
  5
12F
102
{ACAD_REACTORS
330
130
102
}
330
127
100
AcDbEntity
  8
Dimension (ANSI)
100
AcDbCircle
 10
6.894270974817478
 20
5.310299923566855
 30
0.0
 40
0.0984251968503937
100
AcDbArc
 50
180.0
 51
270.0
  0
HATCH
  5
130
330
127
100
AcDbEntity
  8
Dimension (ANSI)
100
AcDbHatch
 10
0.0
 20
0.0
 30
0.0
210
0.0
220
0.0
230
1.0
  2
SOLID
 70
     1
 71
     1
 91
        1
 92
        0
 93
        2
 72
     1
 10
6.894270974817478
 20
5.211874726716462
 11
6.795845777967085
 21
5.310299923566855
 72
     2
 10
6.894270974817478
 20
5.310299923566855
 40
0.0984251968503937
 50
180.0
 51
270.0
 73
     1
 97
        2
330
12E
330
12F
 75
     0
 76
     1
 98
        1
 10
0.0
 20
0.0
  0
POLYLINE
  5
131
330
127
100
AcDbEntity
  8
Dimension (ANSI)
100
AcDb2dPolyline
 66
     1
 10
0.0
 20
0.0
 30
0.0
 70
   128
  0
VERTEX
  5
132
330
131
100
AcDbEntity
  8
Dimension (ANSI)
100
AcDbVertex
100
AcDb2dVertex
 10
6.894270829328401
 20
5.310300016027735
 30
0.0
  0
VERTEX
  5
133
330
131
100
AcDbEntity
  8
Dimension (ANSI)
100
AcDbVertex
100
AcDb2dVertex
 10
6.992696026178794
 20
5.310300016027735
 30
0.0
  0
VERTEX
  5
135
330
131
100
AcDbEntity
  8
Dimension (ANSI)
100
AcDbVertex
100
AcDb2dVertex
 10
6.894270829328401
 20
5.408725212878128
 30
0.0
  0
VERTEX
  5
136
330
131
100
AcDbEntity
  8
Dimension (ANSI)
100
AcDbVertex
100
AcDb2dVertex
 10
6.894270829328401
 20
5.310300016027735
 30
0.0
  0
SEQEND
  5
134
330
131
100
AcDbEntity
  8
Dimension (ANSI)
  0
SOLID
  5
137
330
127
100
AcDbEntity
  8
Dimension (ANSI)
100
AcDbTrace
 10
6.894270829328401
 20
5.310300016027735
 30
0.0
 11
6.992696026178794
 21
5.310300016027735
 31
0.0
 12
6.894270829328401
 22
5.408725212878128
 32
0.0
 13
6.894270829328401
 23
5.310300016027735
 33
0.0
  0
POLYLINE
  5
138
330
127
100
AcDbEntity
  8
Dimension (ANSI)
100
AcDb2dPolyline
 66
     1
 10
0.0
 20
0.0
 30
0.0
 70
   128
  0
VERTEX
  5
139
330
138
100
AcDbEntity
  8
Dimension (ANSI)
100
AcDbVertex
100
AcDb2dVertex
 10
6.894270829328401
 20
5.310300016027735
 30
0.0
  0
VERTEX
  5
13A
330
138
100
AcDbEntity
  8
Dimension (ANSI)
100
AcDbVertex
100
AcDb2dVertex
 10
6.894270829328401
 20
5.408725212878128
 30
0.0
  0
VERTEX
  5
13C
330
138
100
AcDbEntity
  8
Dimension (ANSI)
100
AcDbVertex
100
AcDb2dVertex
 10
6.894270829328401
 20
5.211874819177341
 30
0.0
  0
VERTEX
  5
13D
330
138
100
AcDbEntity
  8
Dimension (ANSI)
100
AcDbVertex
100
AcDb2dVertex
 10
6.894270829328401
 20
5.310300016027735
 30
0.0
  0
SEQEND
  5
13B
330
138
100
AcDbEntity
  8
Dimension (ANSI)
  0
SOLID
  5
13E
330
127
100
AcDbEntity
  8
Dimension (ANSI)
100
AcDbTrace
 10
6.894270829328401
 20
5.310300016027735
 30
0.0
 11
6.894270829328401
 21
5.408725212878128
 31
0.0
 12
6.894270829328401
 22
5.211874819177341
 32
0.0
 13
6.894270829328401
 23
5.310300016027735
 33
0.0
  0
POLYLINE
  5
13F
330
127
100
AcDbEntity
  8
Dimension (ANSI)
100
AcDb2dPolyline
 66
     1
 10
0.0
 20
0.0
 30
0.0
 70
   128
  0
VERTEX
  5
140
330
13F
100
AcDbEntity
  8
Dimension (ANSI)
100
AcDbVertex
100
AcDb2dVertex
 10
6.894270829328401
 20
5.310300016027735
 30
0.0
  0
VERTEX
  5
141
330
13F
100
AcDbEntity
  8
Dimension (ANSI)
100
AcDbVertex
100
AcDb2dVertex
 10
6.894270829328401
 20
5.211874819177341
 30
0.0
  0
VERTEX
  5
143
330
13F
100
AcDbEntity
  8
Dimension (ANSI)
100
AcDbVertex
100
AcDb2dVertex
 10
6.795845632478007
 20
5.310300016027735
 30
0.0
  0
VERTEX
  5
144
330
13F
100
AcDbEntity
  8
Dimension (ANSI)
100
AcDbVertex
100
AcDb2dVertex
 10
6.894270829328401
 20
5.310300016027735
 30
0.0
  0
SEQEND
  5
142
330
13F
100
AcDbEntity
  8
Dimension (ANSI)
  0
SOLID
  5
145
330
127
100
AcDbEntity
  8
Dimension (ANSI)
100
AcDbTrace
 10
6.894270829328401
 20
5.310300016027735
 30
0.0
 11
6.894270829328401
 21
5.211874819177341
 31
0.0
 12
6.795845632478007
 22
5.310300016027735
 32
0.0
 13
6.894270829328401
 23
5.310300016027735
 33
0.0
  0
POLYLINE
  5
146
330
127
100
AcDbEntity
  8
Dimension (ANSI)
100
AcDb2dPolyline
 66
     1
 10
0.0
 20
0.0
 30
0.0
 70
   128
  0
VERTEX
  5
147
330
146
100
AcDbEntity
  8
Dimension (ANSI)
100
AcDbVertex
100
AcDb2dVertex
 10
6.894270829328401
 20
5.310300016027735
 30
0.0
  0
VERTEX
  5
148
330
146
100
AcDbEntity
  8
Dimension (ANSI)
100
AcDbVertex
100
AcDb2dVertex
 10
6.795845632478007
 20
5.310300016027735
 30
0.0
  0
VERTEX
  5
14A
330
146
100
AcDbEntity
  8
Dimension (ANSI)
100
AcDbVertex
100
AcDb2dVertex
 10
6.894270829328401
 20
5.310300016027735
 30
0.0
  0
VERTEX
  5
14B
330
146
100
AcDbEntity
  8
Dimension (ANSI)
100
AcDbVertex
100
AcDb2dVertex
 10
6.894270829328401
 20
5.310300016027735
 30
0.0
  0
SEQEND
  5
149
330
146
100
AcDbEntity
  8
Dimension (ANSI)
  0
SOLID
  5
14C
330
127
100
AcDbEntity
  8
Dimension (ANSI)
100
AcDbTrace
 10
6.894270829328401
 20
5.310300016027735
 30
0.0
 11
6.795845632478007
 21
5.310300016027735
 31
0.0
 12
6.894270829328401
 22
5.310300016027735
 32
0.0
 13
6.894270829328401
 23
5.310300016027735
 33
0.0
  0
ENDBLK
  5
129
330
127
100
AcDbEntity
  8
0
100
AcDbBlockEnd
  0
BLOCK
  5
178
330
177
100
AcDbEntity
  8
0
100
AcDbBlockBegin
  2
Origin Indicator Symbol2
 70
     0
 10
0.0
 20
0.0
 30
0.0
  3
Origin Indicator Symbol2
  1

  0
CIRCLE
  5
17A
330
177
100
AcDbEntity
  8
Dimension (ANSI)
100
AcDbCircle
 10
6.90469751533565
 20
3.310269237774102
 30
0.0
 40
0.0984251968503937
  0
LINE
  5
17B
102
{ACAD_REACTORS
330
17D
102
}
330
177
100
AcDbEntity
  8
Dimension (ANSI)
100
AcDbLine
 10
6.90469751533565
 20
3.408694434624496
 30
0.0
 11
7.003122712186044
 21
3.310269237774102
 31
0.0
  0
ARC
  5
17C
102
{ACAD_REACTORS
330
17D
102
}
330
177
100
AcDbEntity
  8
Dimension (ANSI)
100
AcDbCircle
 10
6.90469751533565
 20
3.310269237774102
 30
0.0
 40
0.0984251968503937
100
AcDbArc
 50
0.0
 51
90.0
  0
HATCH
  5
17D
330
177
100
AcDbEntity
  8
Dimension (ANSI)
100
AcDbHatch
 10
0.0
 20
0.0
 30
0.0
210
0.0
220
0.0
230
1.0
  2
SOLID
 70
     1
 71
     1
 91
        1
 92
        0
 93
        2
 72
     1
 10
6.90469751533565
 20
3.408694434624496
 11
7.003122712186043
 21
3.310269237774102
 72
     2
 10
6.90469751533565
 20
3.310269237774102
 40
0.0984251968503937
 50
0.0
 51
90.0
 73
     1
 97
        2
330
17B
330
17C
 75
     0
 76
     1
 98
        1
 10
0.0
 20
0.0
  0
LINE
  5
17E
102
{ACAD_REACTORS
330
180
102
}
330
177
100
AcDbEntity
  8
Dimension (ANSI)
100
AcDbLine
 10
6.90469751533565
 20
3.211844040923708
 30
0.0
 11
6.806272318485256
 21
3.310269237774102
 31
0.0
  0
ARC
  5
17F
102
{ACAD_REACTORS
330
180
102
}
330
177
100
AcDbEntity
  8
Dimension (ANSI)
100
AcDbCircle
 10
6.90469751533565
 20
3.310269237774102
 30
0.0
 40
0.0984251968503937
100
AcDbArc
 50
180.0
 51
270.0
  0
HATCH
  5
180
330
177
100
AcDbEntity
  8
Dimension (ANSI)
100
AcDbHatch
 10
0.0
 20
0.0
 30
0.0
210
0.0
220
0.0
230
1.0
  2
SOLID
 70
     1
 71
     1
 91
        1
 92
        0
 93
        2
 72
     1
 10
6.90469751533565
 20
3.211844040923708
 11
6.806272318485256
 21
3.310269237774102
 72
     2
 10
6.90469751533565
 20
3.310269237774102
 40
0.0984251968503937
 50
180.0
 51
270.0
 73
     1
 97
        2
330
17E
330
17F
 75
     0
 76
     1
 98
        1
 10
0.0
 20
0.0
  0
POLYLINE
  5
181
330
177
100
AcDbEntity
  8
Dimension (ANSI)
100
AcDb2dPolyline
 66
     1
 10
0.0
 20
0.0
 30
0.0
 70
   128
  0
VERTEX
  5
182
330
181
100
AcDbEntity
  8
Dimension (ANSI)
100
AcDbVertex
100
AcDb2dVertex
 10
6.904697418212889
 20
3.31026925815372
 30
0.0
  0
VERTEX
  5
183
330
181
100
AcDbEntity
  8
Dimension (ANSI)
100
AcDbVertex
100
AcDb2dVertex
 10
7.003122615063284
 20
3.31026925815372
 30
0.0
  0
VERTEX
  5
185
330
181
100
AcDbEntity
  8
Dimension (ANSI)
100
AcDbVertex
100
AcDb2dVertex
 10
6.904697418212889
 20
3.408694455004113
 30
0.0
  0
VERTEX
  5
186
330
181
100
AcDbEntity
  8
Dimension (ANSI)
100
AcDbVertex
100
AcDb2dVertex
 10
6.904697418212889
 20
3.31026925815372
 30
0.0
  0
SEQEND
  5
184
330
181
100
AcDbEntity
  8
Dimension (ANSI)
  0
SOLID
  5
187
330
177
100
AcDbEntity
  8
Dimension (ANSI)
100
AcDbTrace
 10
6.904697418212889
 20
3.31026925815372
 30
0.0
 11
7.003122615063284
 21
3.31026925815372
 31
0.0
 12
6.904697418212889
 22
3.408694455004113
 32
0.0
 13
6.904697418212889
 23
3.31026925815372
 33
0.0
  0
POLYLINE
  5
188
330
177
100
AcDbEntity
  8
Dimension (ANSI)
100
AcDb2dPolyline
 66
     1
 10
0.0
 20
0.0
 30
0.0
 70
   128
  0
VERTEX
  5
189
330
188
100
AcDbEntity
  8
Dimension (ANSI)
100
AcDbVertex
100
AcDb2dVertex
 10
6.904697418212889
 20
3.31026925815372
 30
0.0
  0
VERTEX
  5
18A
330
188
100
AcDbEntity
  8
Dimension (ANSI)
100
AcDbVertex
100
AcDb2dVertex
 10
6.904697418212889
 20
3.408694455004113
 30
0.0
  0
VERTEX
  5
18C
330
188
100
AcDbEntity
  8
Dimension (ANSI)
100
AcDbVertex
100
AcDb2dVertex
 10
6.904697418212889
 20
3.211844061303326
 30
0.0
  0
VERTEX
  5
18D
330
188
100
AcDbEntity
  8
Dimension (ANSI)
100
AcDbVertex
100
AcDb2dVertex
 10
6.904697418212889
 20
3.31026925815372
 30
0.0
  0
SEQEND
  5
18B
330
188
100
AcDbEntity
  8
Dimension (ANSI)
  0
SOLID
  5
18E
330
177
100
AcDbEntity
  8
Dimension (ANSI)
100
AcDbTrace
 10
6.904697418212889
 20
3.31026925815372
 30
0.0
 11
6.904697418212889
 21
3.408694455004113
 31
0.0
 12
6.904697418212889
 22
3.211844061303326
 32
0.0
 13
6.904697418212889
 23
3.31026925815372
 33
0.0
  0
POLYLINE
  5
18F
330
177
100
AcDbEntity
  8
Dimension (ANSI)
100
AcDb2dPolyline
 66
     1
 10
0.0
 20
0.0
 30
0.0
 70
   128
  0
VERTEX
  5
190
330
18F
100
AcDbEntity
  8
Dimension (ANSI)
100
AcDbVertex
100
AcDb2dVertex
 10
6.904697418212889
 20
3.31026925815372
 30
0.0
  0
VERTEX
  5
191
330
18F
100
AcDbEntity
  8
Dimension (ANSI)
100
AcDbVertex
100
AcDb2dVertex
 10
6.904697418212889
 20
3.211844061303326
 30
0.0
  0
VERTEX
  5
193
330
18F
100
AcDbEntity
  8
Dimension (ANSI)
100
AcDbVertex
100
AcDb2dVertex
 10
6.806272221362496
 20
3.31026925815372
 30
0.0
  0
VERTEX
  5
194
330
18F
100
AcDbEntity
  8
Dimension (ANSI)
100
AcDbVertex
100
AcDb2dVertex
 10
6.904697418212889
 20
3.31026925815372
 30
0.0
  0
SEQEND
  5
192
330
18F
100
AcDbEntity
  8
Dimension (ANSI)
  0
SOLID
  5
195
330
177
100
AcDbEntity
  8
Dimension (ANSI)
100
AcDbTrace
 10
6.904697418212889
 20
3.31026925815372
 30
0.0
 11
6.904697418212889
 21
3.211844061303326
 31
0.0
 12
6.806272221362496
 22
3.31026925815372
 32
0.0
 13
6.904697418212889
 23
3.31026925815372
 33
0.0
  0
POLYLINE
  5
196
330
177
100
AcDbEntity
  8
Dimension (ANSI)
100
AcDb2dPolyline
 66
     1
 10
0.0
 20
0.0
 30
0.0
 70
   128
  0
VERTEX
  5
197
330
196
100
AcDbEntity
  8
Dimension (ANSI)
100
AcDbVertex
100
AcDb2dVertex
 10
6.904697418212889
 20
3.31026925815372
 30
0.0
  0
VERTEX
  5
198
330
196
100
AcDbEntity
  8
Dimension (ANSI)
100
AcDbVertex
100
AcDb2dVertex
 10
6.806272221362496
 20
3.31026925815372
 30
0.0
  0
VERTEX
  5
19A
330
196
100
AcDbEntity
  8
Dimension (ANSI)
100
AcDbVertex
100
AcDb2dVertex
 10
6.904697418212889
 20
3.31026925815372
 30
0.0
  0
VERTEX
  5
19B
330
196
100
AcDbEntity
  8
Dimension (ANSI)
100
AcDbVertex
100
AcDb2dVertex
 10
6.904697418212889
 20
3.31026925815372
 30
0.0
  0
SEQEND
  5
199
330
196
100
AcDbEntity
  8
Dimension (ANSI)
  0
SOLID
  5
19C
330
177
100
AcDbEntity
  8
Dimension (ANSI)
100
AcDbTrace
 10
6.904697418212889
 20
3.31026925815372
 30
0.0
 11
6.806272221362496
 21
3.31026925815372
 31
0.0
 12
6.904697418212889
 22
3.31026925815372
 32
0.0
 13
6.904697418212889
 23
3.31026925815372
 33
0.0
  0
ENDBLK
  5
179
330
177
100
AcDbEntity
  8
0
100
AcDbBlockEnd
  0
BLOCK
  5
19F
330
19E
100
AcDbEntity
  8
0
100
AcDbBlockBegin
  2
Hole Table1
 70
     0
 10
0.0
 20
0.0
 30
0.0
  3
Hole Table1
  1

  0
MTEXT
  5
1A1
330
19E
100
AcDbEntity
  8
Symbol (ANSI)
100
AcDbMText
 10
3.281612115928882
 20
7.605086678805326
 30
0.0
 40
0.1200000014830762
 41
0.0
 71
     7
 72
     1
  1
Hole Table
  7
Text Style29
 73
     1
 44
1.0
1001
ACAD
1000
MTEXTBEGIN
1070
    73
1070
     1
1070
    44
1040
1.0
1070
    74
1070
     0
1000
MTEXTEND
  0
LINE
  5
1A2
330
19E
100
AcDbEntity
  8
Symbol (ANSI)
100
AcDbLine
 10
0.9937943320580258
 20
7.573985719162544
 30
0.0
 11
1.534546267375715
 21
7.573985719162544
 31
0.0
  0
LINE
  5
1A3
330
19E
100
AcDbEntity
  8
Symbol (ANSI)
100
AcDbLine
 10
1.534546267375715
 20
7.573985719162544
 30
0.0
 11
1.534546267375715
 21
7.383906977521987
 31
0.0
  0
LINE
  5
1A4
330
19E
100
AcDbEntity
  8
Symbol (ANSI)
100
AcDbLine
 10
0.9937943320580258
 20
7.383906977521987
 30
0.0
 11
1.534546267375715
 21
7.383906977521987
 31
0.0
  0
MTEXT
  5
1A5
330
19E
100
AcDbEntity
  8
Symbol (ANSI)
100
AcDbMText
 10
1.086757426538854
 20
7.416417985776288
 30
0.0
 40
0.1200000014830762
 41
0.0
 71
     7
 72
     1
  1
HOLE
  7
Text Style29
 73
     1
 44
1.0
1001
ACAD
1000
MTEXTBEGIN
1070
    73
1070
     1
1070
    44
1040
1.0
1070
    74
1070
     0
1000
MTEXTEND
  0
LINE
  5
1A6
330
19E
100
AcDbEntity
  8
Symbol (ANSI)
100
AcDbLine
 10
1.534546267375715
 20
7.573985719162544
 30
0.0
 11
2.399460530602353
 21
7.573985719162544
 31
0.0
  0
LINE
  5
1A7
330
19E
100
AcDbEntity
  8
Symbol (ANSI)
100
AcDbLine
 10
1.534546267375715
 20
7.573985719162544
 30
0.0
 11
1.534546267375715
 21
7.383906977521987
 31
0.0
  0
LINE
  5
1A8
330
19E
100
AcDbEntity
  8
Symbol (ANSI)
100
AcDbLine
 10
2.399460530602353
 20
7.573985719162544
 30
0.0
 11
2.399460530602353
 21
7.383906977521987
 31
0.0
  0
LINE
  5
1A9
330
19E
100
AcDbEntity
  8
Symbol (ANSI)
100
AcDbLine
 10
1.534546267375715
 20
7.383906977521987
 30
0.0
 11
2.399460530602353
 21
7.383906977521987
 31
0.0
  0
MTEXT
  5
1AA
330
19E
100
AcDbEntity
  8
Symbol (ANSI)
100
AcDbMText
 10
1.770115670252878
 20
7.41894634880384
 30
0.0
 40
0.1200000014830762
 41
0.0
 71
     7
 72
     1
  1
XDIM
  7
Text Style29
 73
     1
 44
1.0
1001
ACAD
1000
MTEXTBEGIN
1070
    73
1070
     1
1070
    44
1040
1.0
1070
    74
1070
     0
1000
MTEXTEND
  0
LINE
  5
1AB
330
19E
100
AcDbEntity
  8
Symbol (ANSI)
100
AcDbLine
 10
2.399460530602353
 20
7.573985719162544
 30
0.0
 11
3.087008760940569
 21
7.573985719162544
 31
0.0
  0
LINE
  5
1AC
330
19E
100
AcDbEntity
  8
Symbol (ANSI)
100
AcDbLine
 10
2.399460530602353
 20
7.573985719162544
 30
0.0
 11
2.399460530602353
 21
7.383906977521987
 31
0.0
  0
LINE
  5
1AD
330
19E
100
AcDbEntity
  8
Symbol (ANSI)
100
AcDbLine
 10
3.087008760940569
 20
7.573985719162544
 30
0.0
 11
3.087008760940569
 21
7.383906977521987
 31
0.0
  0
LINE
  5
1AE
330
19E
100
AcDbEntity
  8
Symbol (ANSI)
100
AcDbLine
 10
2.399460530602353
 20
7.383906977521987
 30
0.0
 11
3.087008760940569
 21
7.383906977521987
 31
0.0
  0
MTEXT
  5
1AF
330
19E
100
AcDbEntity
  8
Symbol (ANSI)
100
AcDbMText
 10
2.543611486235235
 20
7.41894634880384
 30
0.0
 40
0.1200000014830762
 41
0.0
 71
     7
 72
     1
  1
YDIM
  7
Text Style29
 73
     1
 44
1.0
1001
ACAD
1000
MTEXTBEGIN
1070
    73
1070
     1
1070
    44
1040
1.0
1070
    74
1070
     0
1000
MTEXTEND
  0
LINE
  5
1B0
330
19E
100
AcDbEntity
  8
Symbol (ANSI)
100
AcDbLine
 10
3.087008760940569
 20
7.573985719162544
 30
0.0
 11
6.297286434472274
 21
7.573985719162544
 31
0.0
  0
LINE
  5
1B1
330
19E
100
AcDbEntity
  8
Symbol (ANSI)
100
AcDbLine
 10
3.087008760940569
 20
7.573985719162544
 30
0.0
 11
3.087008760940569
 21
7.383906977521987
 31
0.0
  0
LINE
  5
1B2
330
19E
100
AcDbEntity
  8
Symbol (ANSI)
100
AcDbLine
 10
3.087008760940569
 20
7.383906977521987
 30
0.0
 11
6.297286434472274
 21
7.383906977521987
 31
0.0
  0
MTEXT
  5
1B3
330
19E
100
AcDbEntity
  8
Symbol (ANSI)
100
AcDbMText
 10
4.198494842825171
 20
7.416417985776288
 30
0.0
 40
0.1200000014830762
 41
0.0
 71
     7
 72
     1
  1
DESCRIPTION
  7
Text Style29
 73
     1
 44
1.0
1001
ACAD
1000
MTEXTBEGIN
1070
    73
1070
     1
1070
    44
1040
1.0
1070
    74
1070
     0
1000
MTEXTEND
  0
LINE
  5
1B4
330
19E
100
AcDbEntity
  8
Symbol (ANSI)
100
AcDbLine
 10
0.9937943320580258
 20
7.383906977521987
 30
0.0
 11
1.534546267375715
 21
7.383906977521987
 31
0.0
  0
LINE
  5
1B5
330
19E
100
AcDbEntity
  8
Symbol (ANSI)
100
AcDbLine
 10
1.534546267375715
 20
7.383906977521987
 30
0.0
 11
1.534546267375715
 21
7.138113949679911
 31
0.0
  0
LINE
  5
1B6
330
19E
100
AcDbEntity
  8
Symbol (ANSI)
100
AcDbLine
 10
0.9937943320580258
 20
7.138113949679911
 30
0.0
 11
1.534546267375715
 21
7.138113949679911
 31
0.0
  0
MTEXT
  5
1B7
330
19E
100
AcDbEntity
  8
Symbol (ANSI)
100
AcDbMText
 10
1.168110527274225
 20
7.200815974598865
 30
0.0
 40
0.1200000014830762
 41
0.0
 71
     7
 72
     1
  1
A1
  7
Text Style29
 73
     1
 44
1.0
1001
ACAD
1000
MTEXTBEGIN
1070
    73
1070
     1
1070
    44
1040
1.0
1070
    74
1070
     0
1000
MTEXTEND
  0
LINE
  5
1B8
330
19E
100
AcDbEntity
  8
Symbol (ANSI)
100
AcDbLine
 10
1.534546267375715
 20
7.383906977521987
 30
0.0
 11
2.399460530602353
 21
7.383906977521987
 31
0.0
  0
LINE
  5
1B9
330
19E
100
AcDbEntity
  8
Symbol (ANSI)
100
AcDbLine
 10
1.534546267375715
 20
7.383906977521987
 30
0.0
 11
1.534546267375715
 21
7.138113949679911
 31
0.0
  0
LINE
  5
1BA
330
19E
100
AcDbEntity
  8
Symbol (ANSI)
100
AcDbLine
 10
2.399460530602353
 20
7.383906977521987
 30
0.0
 11
2.399460530602353
 21
7.138113949679911
 31
0.0
  0
LINE
  5
1BB
330
19E
100
AcDbEntity
  8
Symbol (ANSI)
100
AcDbLine
 10
1.534546267375715
 20
7.138113949679911
 30
0.0
 11
2.399460530602353
 21
7.138113949679911
 31
0.0
  0
MTEXT
  5
1BC
330
19E
100
AcDbEntity
  8
Symbol (ANSI)
100
AcDbMText
 10
1.77517859203224
 20
7.198482101034971
 30
0.0
 40
0.1200000014830762
 41
0.0
 71
     7
 72
     1
  1
0.269
  7
Text Style29
 73
     1
 44
1.0
1001
ACAD
1000
MTEXTBEGIN
1070
    73
1070
     1
1070
    44
1040
1.0
1070
    74
1070
     0
1000
MTEXTEND
  0
LINE
  5
1BD
330
19E
100
AcDbEntity
  8
Symbol (ANSI)
100
AcDbLine
 10
2.399460530602353
 20
7.383906977521987
 30
0.0
 11
3.087008760940569
 21
7.383906977521987
 31
0.0
  0
LINE
  5
1BE
330
19E
100
AcDbEntity
  8
Symbol (ANSI)
100
AcDbLine
 10
2.399460530602353
 20
7.383906977521987
 30
0.0
 11
2.399460530602353
 21
7.138113949679911
 31
0.0
  0
LINE
  5
1BF
330
19E
100
AcDbEntity
  8
Symbol (ANSI)
100
AcDbLine
 10
3.087008760940569
 20
7.383906977521987
 30
0.0
 11
3.087008760940569
 21
7.138113949679911
 31
0.0
  0
LINE
  5
1C0
330
19E
100
AcDbEntity
  8
Symbol (ANSI)
100
AcDbLine
 10
2.399460530602353
 20
7.138113949679911
 30
0.0
 11
3.087008760940569
 21
7.138113949679911
 31
0.0
  0
MTEXT
  5
1C1
330
19E
100
AcDbEntity
  8
Symbol (ANSI)
100
AcDbMText
 10
2.551409838814667
 20
7.198530723400886
 30
0.0
 40
0.1200000014830762
 41
0.0
 71
     7
 72
     1
  1
0.099
  7
Text Style29
 73
     1
 44
1.0
1001
ACAD
1000
MTEXTBEGIN
1070
    73
1070
     1
1070
    44
1040
1.0
1070
    74
1070
     0
1000
MTEXTEND
  0
MTEXT
  5
1C2
330
19E
100
AcDbEntity
  8
Symbol (ANSI)
100
AcDbMText
 10
3.872438598254732
 20
7.203269150212175
 30
0.0
 40
0.1200000014830762
 41
0.0
 71
     7
 72
     1
  1
DRILL 
  7
Text Style29
 73
     1
 44
1.0
1001
ACAD
1000
MTEXTBEGIN
1070
    73
1070
     1
1070
    44
1040
1.0
1070
    74
1070
     0
1000
MTEXTEND
  0
MTEXT
  5
1C4
330
19E
100
AcDbEntity
  8
Symbol (ANSI)
100
AcDbMText
 10
4.353822182870485
 20
7.173153319758651
 30
0.0
 40
0.1200000014830762
 41
0.0
 71
     7
 72
     1
  1
n
  7
Text Style6
 73
     1
 44
1.0
1001
ACAD
1000
MTEXTBEGIN
1070
    73
1070
     1
1070
    44
1040
1.0
1070
    74
1070
     0
1000
MTEXTEND
  0
MTEXT
  5
1C6
330
19E
100
AcDbEntity
  8
Symbol (ANSI)
100
AcDbMText
 10
4.487724240289157
 20
7.200546297720966
 30
0.0
 40
0.1200000014830762
 41
0.0
 71
     7
 72
     1
  1
0.089 in THRU
  7
Text Style29
 73
     1
 44
1.0
1001
ACAD
1000
MTEXTBEGIN
1070
    73
1070
     1
1070
    44
1040
1.0
1070
    74
1070
     0
1000
MTEXTEND
  0
LINE
  5
1C7
330
19E
100
AcDbEntity
  8
Symbol (ANSI)
100
AcDbLine
 10
0.9937943320580258
 20
7.138113949679911
 30
0.0
 11
1.534546267375715
 21
7.138113949679911
 31
0.0
  0
LINE
  5
1C8
330
19E
100
AcDbEntity
  8
Symbol (ANSI)
100
AcDbLine
 10
1.534546267375715
 20
7.138113949679911
 30
0.0
 11
1.534546267375715
 21
6.892320921837834
 31
0.0
  0
LINE
  5
1C9
330
19E
100
AcDbEntity
  8
Symbol (ANSI)
100
AcDbLine
 10
0.9937943320580258
 20
6.892320921837834
 30
0.0
 11
1.534546267375715
 21
6.892320921837834
 31
0.0
  0
MTEXT
  5
1CA
330
19E
100
AcDbEntity
  8
Symbol (ANSI)
100
AcDbMText
 10
1.168110527274225
 20
6.95395325470667
 30
0.0
 40
0.1200000014830762
 41
0.0
 71
     7
 72
     1
  1
A2
  7
Text Style29
 73
     1
 44
1.0
1001
ACAD
1000
MTEXTBEGIN
1070
    73
1070
     1
1070
    44
1040
1.0
1070
    74
1070
     0
1000
MTEXTEND
  0
LINE
  5
1CB
330
19E
100
AcDbEntity
  8
Symbol (ANSI)
100
AcDbLine
 10
1.534546267375715
 20
7.138113949679911
 30
0.0
 11
2.399460530602353
 21
7.138113949679911
 31
0.0
  0
LINE
  5
1CC
330
19E
100
AcDbEntity
  8
Symbol (ANSI)
100
AcDbLine
 10
1.534546267375715
 20
7.138113949679911
 30
0.0
 11
1.534546267375715
 21
6.892320921837834
 31
0.0
  0
LINE
  5
1CD
330
19E
100
AcDbEntity
  8
Symbol (ANSI)
100
AcDbLine
 10
2.399460530602353
 20
7.138113949679911
 30
0.0
 11
2.399460530602353
 21
6.892320921837834
 31
0.0
  0
LINE
  5
1CE
330
19E
100
AcDbEntity
  8
Symbol (ANSI)
100
AcDbLine
 10
1.534546267375715
 20
6.892320921837834
 30
0.0
 11
2.399460530602353
 21
6.892320921837834
 31
0.0
  0
MTEXT
  5
1CF
330
19E
100
AcDbEntity
  8
Symbol (ANSI)
100
AcDbMText
 10
1.77517859203224
 20
6.952737695558809
 30
0.0
 40
0.1200000014830762
 41
0.0
 71
     7
 72
     1
  1
0.467
  7
Text Style29
 73
     1
 44
1.0
1001
ACAD
1000
MTEXTBEGIN
1070
    73
1070
     1
1070
    44
1040
1.0
1070
    74
1070
     0
1000
MTEXTEND
  0
LINE
  5
1D0
330
19E
100
AcDbEntity
  8
Symbol (ANSI)
100
AcDbLine
 10
2.399460530602353
 20
7.138113949679911
 30
0.0
 11
3.087008760940569
 21
7.138113949679911
 31
0.0
  0
LINE
  5
1D1
330
19E
100
AcDbEntity
  8
Symbol (ANSI)
100
AcDbLine
 10
2.399460530602353
 20
7.138113949679911
 30
0.0
 11
2.399460530602353
 21
6.892320921837834
 31
0.0
  0
LINE
  5
1D2
330
19E
100
AcDbEntity
  8
Symbol (ANSI)
100
AcDbLine
 10
3.087008760940569
 20
7.138113949679911
 30
0.0
 11
3.087008760940569
 21
6.892320921837834
 31
0.0
  0
LINE
  5
1D3
330
19E
100
AcDbEntity
  8
Symbol (ANSI)
100
AcDbLine
 10
2.399460530602353
 20
6.892320921837834
 30
0.0
 11
3.087008760940569
 21
6.892320921837834
 31
0.0
  0
MTEXT
  5
1D4
330
19E
100
AcDbEntity
  8
Symbol (ANSI)
100
AcDbMText
 10
2.551409838814667
 20
6.952737695558809
 30
0.0
 40
0.1200000014830762
 41
0.0
 71
     7
 72
     1
  1
0.099
  7
Text Style29
 73
     1
 44
1.0
1001
ACAD
1000
MTEXTBEGIN
1070
    73
1070
     1
1070
    44
1040
1.0
1070
    74
1070
     0
1000
MTEXTEND
  0
LINE
  5
1D5
330
19E
100
AcDbEntity
  8
Symbol (ANSI)
100
AcDbLine
 10
0.9937943320580258
 20
6.892320921837834
 30
0.0
 11
1.534546267375715
 21
6.892320921837834
 31
0.0
  0
LINE
  5
1D6
330
19E
100
AcDbEntity
  8
Symbol (ANSI)
100
AcDbLine
 10
1.534546267375715
 20
6.892320921837834
 30
0.0
 11
1.534546267375715
 21
6.646527893995757
 31
0.0
  0
LINE
  5
1D7
330
19E
100
AcDbEntity
  8
Symbol (ANSI)
100
AcDbLine
 10
0.9937943320580258
 20
6.646527893995757
 30
0.0
 11
1.534546267375715
 21
6.646527893995757
 31
0.0
  0
MTEXT
  5
1D8
330
19E
100
AcDbEntity
  8
Symbol (ANSI)
100
AcDbMText
 10
1.1945532127394
 20
6.709229918914711
 30
0.0
 40
0.1200000014830762
 41
0.0
 71
     7
 72
     1
  1
B1
  7
Text Style29
 73
     1
 44
1.0
1001
ACAD
1000
MTEXTBEGIN
1070
    73
1070
     1
1070
    44
1040
1.0
1070
    74
1070
     0
1000
MTEXTEND
  0
LINE
  5
1D9
330
19E
100
AcDbEntity
  8
Symbol (ANSI)
100
AcDbLine
 10
1.534546267375715
 20
6.892320921837834
 30
0.0
 11
2.399460530602353
 21
6.892320921837834
 31
0.0
  0
LINE
  5
1DA
330
19E
100
AcDbEntity
  8
Symbol (ANSI)
100
AcDbLine
 10
1.534546267375715
 20
6.892320921837834
 30
0.0
 11
1.534546267375715
 21
6.646527893995757
 31
0.0
  0
LINE
  5
1DB
330
19E
100
AcDbEntity
  8
Symbol (ANSI)
100
AcDbLine
 10
2.399460530602353
 20
6.892320921837834
 30
0.0
 11
2.399460530602353
 21
6.646527893995757
 31
0.0
  0
LINE
  5
1DC
330
19E
100
AcDbEntity
  8
Symbol (ANSI)
100
AcDbLine
 10
1.534546267375715
 20
6.646527893995757
 30
0.0
 11
2.399460530602353
 21
6.646527893995757
 31
0.0
  0
MTEXT
  5
1DD
330
19E
100
AcDbEntity
  8
Symbol (ANSI)
100
AcDbMText
 10
1.730154275890315
 20
6.70670155588716
 30
0.0
 40
0.1200000014830762
 41
0.0
 71
     7
 72
     1
  1
0.6851
  7
Text Style29
 73
     1
 44
1.0
1001
ACAD
1000
MTEXTBEGIN
1070
    73
1070
     1
1070
    44
1040
1.0
1070
    74
1070
     0
1000
MTEXTEND
  0
LINE
  5
1DE
330
19E
100
AcDbEntity
  8
Symbol (ANSI)
100
AcDbLine
 10
2.399460530602353
 20
6.892320921837834
 30
0.0
 11
3.087008760940569
 21
6.892320921837834
 31
0.0
  0
LINE
  5
1DF
330
19E
100
AcDbEntity
  8
Symbol (ANSI)
100
AcDbLine
 10
2.399460530602353
 20
6.892320921837834
 30
0.0
 11
2.399460530602353
 21
6.646527893995757
 31
0.0
  0
LINE
  5
1E0
330
19E
100
AcDbEntity
  8
Symbol (ANSI)
100
AcDbLine
 10
3.087008760940569
 20
6.892320921837834
 30
0.0
 11
3.087008760940569
 21
6.646527893995757
 31
0.0
  0
LINE
  5
1E1
330
19E
100
AcDbEntity
  8
Symbol (ANSI)
100
AcDbLine
 10
2.399460530602353
 20
6.646527893995757
 30
0.0
 11
3.087008760940569
 21
6.646527893995757
 31
0.0
  0
MTEXT
  5
1E2
330
19E
100
AcDbEntity
  8
Symbol (ANSI)
100
AcDbMText
 10
2.506385522672742
 20
6.706896045350818
 30
0.0
 40
0.1200000014830762
 41
0.0
 71
     7
 72
     1
  1
0.2500
  7
Text Style29
 73
     1
 44
1.0
1001
ACAD
1000
MTEXTBEGIN
1070
    73
1070
     1
1070
    44
1040
1.0
1070
    74
1070
     0
1000
MTEXTEND
  0
MTEXT
  5
1E3
330
19E
100
AcDbEntity
  8
Symbol (ANSI)
100
AcDbMText
 10
3.765086626127208
 20
6.711683094528021
 30
0.0
 40
0.1200000014830762
 41
0.0
 71
     7
 72
     1
  1
REAM 
  7
Text Style29
 73
     1
 44
1.0
1001
ACAD
1000
MTEXTBEGIN
1070
    73
1070
     1
1070
    44
1040
1.0
1070
    74
1070
     0
1000
MTEXTEND
  0
MTEXT
  5
1E4
330
19E
100
AcDbEntity
  8
Symbol (ANSI)
100
AcDbMText
 10
4.227604730545264
 20
6.681567264074498
 30
0.0
 40
0.1200000014830762
 41
0.0
 71
     7
 72
     1
  1
n
  7
Text Style6
 73
     1
 44
1.0
1001
ACAD
1000
MTEXTBEGIN
1070
    73
1070
     1
1070
    44
1040
1.0
1070
    74
1070
     0
1000
MTEXTEND
  0
MTEXT
  5
1E5
330
19E
100
AcDbEntity
  8
Symbol (ANSI)
100
AcDbMText
 10
4.361506787963937
 20
6.70915473150047
 30
0.0
 40
0.1200000014830762
 41
0.0
 71
     7
 72
     1
  1
0.0945 
  7
Text Style29
 73
     1
 44
1.0
1001
ACAD
1000
MTEXTBEGIN
1070
    73
1070
     1
1070
    44
1040
1.0
1070
    74
1070
     0
1000
MTEXTEND
  0
MTEXT
  5
1E6
330
19E
100
AcDbEntity
  8
Symbol (ANSI)
100
AcDbMText
 10
4.920386172808259
 20
6.703574986328996
 30
0.0
 40
0.1200000014830762
 41
0.0
 71
     7
 72
     1
  1
x
  7
Text Style6
 73
     1
 44
1.0
1001
ACAD
1000
MTEXTBEGIN
1070
    73
1070
     1
1070
    44
1040
1.0
1070
    74
1070
     0
1000
MTEXTEND
  0
MTEXT
  5
1E7
330
19E
100
AcDbEntity
  8
Symbol (ANSI)
100
AcDbMText
 10
5.039931864872889
 20
6.70915473150047
 30
0.0
 40
0.1200000014830762
 41
0.0
 71
     7
 72
     1
  1
 0.20 **
  7
Text Style29
 73
     1
 44
1.0
1001
ACAD
1000
MTEXTBEGIN
1070
    73
1070
     1
1070
    44
1040
1.0
1070
    74
1070
     0
1000
MTEXTEND
  0
LINE
  5
1E8
330
19E
100
AcDbEntity
  8
Symbol (ANSI)
100
AcDbLine
 10
3.087008760940569
 20
6.892320921837834
 30
0.0
 11
6.297286434472274
 21
6.892320921837834
 31
0.0
  0
LINE
  5
1E9
330
19E
100
AcDbEntity
  8
Symbol (ANSI)
100
AcDbLine
 10
3.087008760940569
 20
6.892320921837834
 30
0.0
 11
3.087008760940569
 21
6.646527893995757
 31
0.0
  0
LINE
  5
1EA
330
19E
100
AcDbEntity
  8
Symbol (ANSI)
100
AcDbLine
 10
6.297286434472274
 20
6.892320921837834
 30
0.0
 11
6.297286434472274
 21
6.646527893995757
 31
0.0
  0
LINE
  5
1EB
330
19E
100
AcDbEntity
  8
Symbol (ANSI)
100
AcDbLine
 10
0.9937943320580258
 20
6.646527893995757
 30
0.0
 11
1.534546267375715
 21
6.646527893995757
 31
0.0
  0
LINE
  5
1EC
330
19E
100
AcDbEntity
  8
Symbol (ANSI)
100
AcDbLine
 10
1.534546267375715
 20
6.646527893995757
 30
0.0
 11
1.534546267375715
 21
6.400734866153681
 31
0.0
  0
LINE
  5
1ED
330
19E
100
AcDbEntity
  8
Symbol (ANSI)
100
AcDbLine
 10
0.9937943320580258
 20
6.400734866153681
 30
0.0
 11
1.534546267375715
 21
6.400734866153681
 31
0.0
  0
MTEXT
  5
1EE
330
19E
100
AcDbEntity
  8
Symbol (ANSI)
100
AcDbMText
 10
1.1945532127394
 20
6.462367199022517
 30
0.0
 40
0.1200000014830762
 41
0.0
 71
     7
 72
     1
  1
B2
  7
Text Style29
 73
     1
 44
1.0
1001
ACAD
1000
MTEXTBEGIN
1070
    73
1070
     1
1070
    44
1040
1.0
1070
    74
1070
     0
1000
MTEXTEND
  0
LINE
  5
1EF
330
19E
100
AcDbEntity
  8
Symbol (ANSI)
100
AcDbLine
 10
1.534546267375715
 20
6.646527893995757
 30
0.0
 11
2.399460530602353
 21
6.646527893995757
 31
0.0
  0
LINE
  5
1F0
330
19E
100
AcDbEntity
  8
Symbol (ANSI)
100
AcDbLine
 10
1.534546267375715
 20
6.646527893995757
 30
0.0
 11
1.534546267375715
 21
6.400734866153681
 31
0.0
  0
LINE
  5
1F1
330
19E
100
AcDbEntity
  8
Symbol (ANSI)
100
AcDbLine
 10
2.399460530602353
 20
6.646527893995757
 30
0.0
 11
2.399460530602353
 21
6.400734866153681
 31
0.0
  0
LINE
  5
1F2
330
19E
100
AcDbEntity
  8
Symbol (ANSI)
100
AcDbLine
 10
1.534546267375715
 20
6.400734866153681
 30
0.0
 11
2.399460530602353
 21
6.400734866153681
 31
0.0
  0
MTEXT
  5
1F3
330
19E
100
AcDbEntity
  8
Symbol (ANSI)
100
AcDbMText
 10
1.730154275890315
 20
6.461103017508741
 30
0.0
 40
0.1200000014830762
 41
0.0
 71
     7
 72
     1
  1
0.1231
  7
Text Style29
 73
     1
 44
1.0
1001
ACAD
1000
MTEXTBEGIN
1070
    73
1070
     1
1070
    44
1040
1.0
1070
    74
1070
     0
1000
MTEXTEND
  0
LINE
  5
1F4
330
19E
100
AcDbEntity
  8
Symbol (ANSI)
100
AcDbLine
 10
2.399460530602353
 20
6.646527893995757
 30
0.0
 11
3.087008760940569
 21
6.646527893995757
 31
0.0
  0
LINE
  5
1F5
330
19E
100
AcDbEntity
  8
Symbol (ANSI)
100
AcDbLine
 10
2.399460530602353
 20
6.646527893995757
 30
0.0
 11
2.399460530602353
 21
6.400734866153681
 31
0.0
  0
LINE
  5
1F6
330
19E
100
AcDbEntity
  8
Symbol (ANSI)
100
AcDbLine
 10
3.087008760940569
 20
6.646527893995757
 30
0.0
 11
3.087008760940569
 21
6.400734866153681
 31
0.0
  0
LINE
  5
1F7
330
19E
100
AcDbEntity
  8
Symbol (ANSI)
100
AcDbLine
 10
2.399460530602353
 20
6.400734866153681
 30
0.0
 11
3.087008760940569
 21
6.400734866153681
 31
0.0
  0
MTEXT
  5
1F8
330
19E
100
AcDbEntity
  8
Symbol (ANSI)
100
AcDbMText
 10
2.506385522672742
 20
6.460908528045083
 30
0.0
 40
0.1200000014830762
 41
0.0
 71
     7
 72
     1
  1
0.3680
  7
Text Style29
 73
     1
 44
1.0
1001
ACAD
1000
MTEXTBEGIN
1070
    73
1070
     1
1070
    44
1040
1.0
1070
    74
1070
     0
1000
MTEXTEND
  0
LINE
  5
1F9
330
19E
100
AcDbEntity
  8
Symbol (ANSI)
100
AcDbLine
 10
0.9937943320580258
 20
6.400734866153681
 30
0.0
 11
1.534546267375715
 21
6.400734866153681
 31
0.0
  0
LINE
  5
1FA
330
19E
100
AcDbEntity
  8
Symbol (ANSI)
100
AcDbLine
 10
1.534546267375715
 20
6.400734866153681
 30
0.0
 11
1.534546267375715
 21
5.828287850049897
 31
0.0
  0
LINE
  5
1FB
330
19E
100
AcDbEntity
  8
Symbol (ANSI)
100
AcDbLine
 10
0.9937943320580258
 20
5.828287850049897
 30
0.0
 11
1.534546267375715
 21
5.828287850049897
 31
0.0
  0
MTEXT
  5
1FC
330
19E
100
AcDbEntity
  8
Symbol (ANSI)
100
AcDbMText
 10
1.180172817796283
 20
6.052371974463126
 30
0.0
 40
0.1200000014830762
 41
0.0
 71
     7
 72
     1
  1
C1
  7
Text Style29
 73
     1
 44
1.0
1001
ACAD
1000
MTEXTBEGIN
1070
    73
1070
     1
1070
    44
1040
1.0
1070
    74
1070
     0
1000
MTEXTEND
  0
LINE
  5
1FD
330
19E
100
AcDbEntity
  8
Symbol (ANSI)
100
AcDbLine
 10
1.534546267375715
 20
6.400734866153681
 30
0.0
 11
2.399460530602353
 21
6.400734866153681
 31
0.0
  0
LINE
  5
1FE
330
19E
100
AcDbEntity
  8
Symbol (ANSI)
100
AcDbLine
 10
1.534546267375715
 20
6.400734866153681
 30
0.0
 11
1.534546267375715
 21
5.828287850049897
 31
0.0
  0
LINE
  5
1FF
330
19E
100
AcDbEntity
  8
Symbol (ANSI)
100
AcDbLine
 10
2.399460530602353
 20
6.400734866153681
 30
0.0
 11
2.399460530602353
 21
5.828287850049897
 31
0.0
  0
LINE
  5
200
330
19E
100
AcDbEntity
  8
Symbol (ANSI)
100
AcDbLine
 10
1.534546267375715
 20
5.828287850049897
 30
0.0
 11
2.399460530602353
 21
5.828287850049897
 31
0.0
  0
MTEXT
  5
201
330
19E
100
AcDbEntity
  8
Symbol (ANSI)
100
AcDbMText
 10
1.77517859203224
 20
6.052031617901724
 30
0.0
 40
0.1200000014830762
 41
0.0
 71
     7
 72
     1
  1
0.715
  7
Text Style29
 73
     1
 44
1.0
1001
ACAD
1000
MTEXTBEGIN
1070
    73
1070
     1
1070
    44
1040
1.0
1070
    74
1070
     0
1000
MTEXTEND
  0
LINE
  5
202
330
19E
100
AcDbEntity
  8
Symbol (ANSI)
100
AcDbLine
 10
2.399460530602353
 20
6.400734866153681
 30
0.0
 11
3.087008760940569
 21
6.400734866153681
 31
0.0
  0
LINE
  5
203
330
19E
100
AcDbEntity
  8
Symbol (ANSI)
100
AcDbLine
 10
2.399460530602353
 20
6.400734866153681
 30
0.0
 11
2.399460530602353
 21
5.828287850049897
 31
0.0
  0
LINE
  5
204
330
19E
100
AcDbEntity
  8
Symbol (ANSI)
100
AcDbLine
 10
3.087008760940569
 20
6.400734866153681
 30
0.0
 11
3.087008760940569
 21
5.828287850049897
 31
0.0
  0
LINE
  5
205
330
19E
100
AcDbEntity
  8
Symbol (ANSI)
100
AcDbLine
 10
2.399460530602353
 20
5.828287850049897
 30
0.0
 11
3.087008760940569
 21
5.828287850049897
 31
0.0
  0
MTEXT
  5
206
330
19E
100
AcDbEntity
  8
Symbol (ANSI)
100
AcDbMText
 10
2.551409838814667
 20
6.052031617901724
 30
0.0
 40
0.1200000014830762
 41
0.0
 71
     7
 72
     1
  1
0.099
  7
Text Style29
 73
     1
 44
1.0
1001
ACAD
1000
MTEXTBEGIN
1070
    73
1070
     1
1070
    44
1040
1.0
1070
    74
1070
     0
1000
MTEXTEND
  0
MTEXT
  5
207
330
19E
100
AcDbEntity
  8
Symbol (ANSI)
100
AcDbMText
 10
3.847446699229949
 20
6.220097038843867
 30
0.0
 40
0.1200000014830762
 41
0.0
 71
     7
 72
     1
  1
DRILL 
  7
Text Style29
 73
     1
 44
1.0
1001
ACAD
1000
MTEXTBEGIN
1070
    73
1070
     1
1070
    44
1040
1.0
1070
    74
1070
     0
1000
MTEXTEND
  0
MTEXT
  5
208
330
19E
100
AcDbEntity
  8
Symbol (ANSI)
100
AcDbMText
 10
4.328830283845701
 20
6.189981208390344
 30
0.0
 40
0.1200000014830762
 41
0.0
 71
     7
 72
     1
  1
n
  7
Text Style6
 73
     1
 44
1.0
1001
ACAD
1000
MTEXTBEGIN
1070
    73
1070
     1
1070
    44
1040
1.0
1070
    74
1070
     0
1000
MTEXTEND
  0
MTEXT
  5
209
330
19E
100
AcDbEntity
  8
Symbol (ANSI)
100
AcDbMText
 10
4.462732341264374
 20
6.190242906172398
 30
0.0
 40
0.1200000014830762
 41
0.0
 71
     7
 72
     1
  1
0.089 in THRU,
  7
Text Style29
 73
     1
 44
1.0
1001
ACAD
1000
MTEXTBEGIN
1070
    73
1070
     1
1070
    44
1040
1.0
1070
    74
1070
     0
1000
MTEXTEND
  0
MTEXT
  5
20A
330
19E
100
AcDbEntity
  8
Symbol (ANSI)
100
AcDbMText
 10
3.240927665522916
 20
5.892168919293742
 30
0.0
 40
0.1200000014830762
 41
0.0
 71
     7
 72
     1
  1
v
  7
Text Style6
 73
     1
 44
1.0
1001
ACAD
1000
MTEXTBEGIN
1070
    73
1070
     1
1070
    44
1040
1.0
1070
    74
1070
     0
1000
MTEXTEND
  0
MTEXT
  5
20B
330
19E
100
AcDbEntity
  8
Symbol (ANSI)
100
AcDbMText
 10
3.48363043406649
 20
5.89344305058216
 30
0.0
 40
0.1200000014830762
 41
0.0
 71
     7
 72
     1
  1
 
  7
Text Style29
 73
     1
 44
1.0
1001
ACAD
1000
MTEXTBEGIN
1070
    73
1070
     1
1070
    44
1040
1.0
1070
    74
1070
     0
1000
MTEXTEND
  0
MTEXT
  5
20C
330
19E
100
AcDbEntity
  8
Symbol (ANSI)
100
AcDbMText
 10
3.549011185449137
 20
5.863327220128637
 30
0.0
 40
0.1200000014830762
 41
0.0
 71
     7
 72
     1
  1
n
  7
Text Style6
 73
     1
 44
1.0
1001
ACAD
1000
MTEXTBEGIN
1070
    73
1070
     1
1070
    44
1040
1.0
1070
    74
1070
     0
1000
MTEXTEND
  0
MTEXT
  5
20D
330
19E
100
AcDbEntity
  8
Symbol (ANSI)
100
AcDbMText
 10
3.68291324286781
 20
5.890914687554609
 30
0.0
 40
0.1200000014830762
 41
0.0
 71
     7
 72
     1
  1
0.156 in 
  7
Text Style29
 73
     1
 44
1.0
1001
ACAD
1000
MTEXTBEGIN
1070
    73
1070
     1
1070
    44
1040
1.0
1070
    74
1070
     0
1000
MTEXTEND
  0
MTEXT
  5
20E
330
19E
100
AcDbEntity
  8
Symbol (ANSI)
100
AcDbMText
 10
4.333008149982635
 20
5.885334942383134
 30
0.0
 40
0.1200000014830762
 41
0.0
 71
     7
 72
     1
  1
x
  7
Text Style6
 73
     1
 44
1.0
1001
ACAD
1000
MTEXTBEGIN
1070
    73
1070
     1
1070
    44
1040
1.0
1070
    74
1070
     0
1000
MTEXTEND
  0
MTEXT
  5
20F
330
19E
100
AcDbEntity
  8
Symbol (ANSI)
100
AcDbMText
 10
4.452553842047266
 20
5.890720198090951
 30
0.0
 40
0.1200000014830762
 41
0.0
 71
     7
 72
     1
  1
 0.28 FROM BACK SIDE
  7
Text Style29
 73
     1
 44
1.0
1001
ACAD
1000
MTEXTBEGIN
1070
    73
1070
     1
1070
    44
1040
1.0
1070
    74
1070
     0
1000
MTEXTEND
  0
LINE
  5
210
330
19E
100
AcDbEntity
  8
Symbol (ANSI)
100
AcDbLine
 10
3.087008760940569
 20
6.400734866153681
 30
0.0
 11
6.297286434472274
 21
6.400734866153681
 31
0.0
  0
LINE
  5
211
330
19E
100
AcDbEntity
  8
Symbol (ANSI)
100
AcDbLine
 10
3.087008760940569
 20
6.400734866153681
 30
0.0
 11
3.087008760940569
 21
5.828287850049897
 31
0.0
  0
LINE
  5
212
330
19E
100
AcDbEntity
  8
Symbol (ANSI)
100
AcDbLine
 10
6.297286434472274
 20
6.400734866153681
 30
0.0
 11
6.297286434472274
 21
5.828287850049897
 31
0.0
  0
LINE
  5
213
330
19E
100
AcDbEntity
  8
Symbol (ANSI)
100
AcDbLine
 10
0.9937943320580258
 20
5.828287850049897
 30
0.0
 11
1.534546267375715
 21
5.828287850049897
 31
0.0
  0
LINE
  5
214
330
19E
100
AcDbEntity
  8
Symbol (ANSI)
100
AcDbLine
 10
1.534546267375715
 20
5.828287850049897
 30
0.0
 11
1.534546267375715
 21
5.255840833946113
 31
0.0
  0
MTEXT
  5
215
330
19E
100
AcDbEntity
  8
Symbol (ANSI)
100
AcDbMText
 10
1.180172817796283
 20
5.479730468895684
 30
0.0
 40
0.1200000014830762
 41
0.0
 71
     7
 72
     1
  1
C2
  7
Text Style29
 73
     1
 44
1.0
1001
ACAD
1000
MTEXTBEGIN
1070
    73
1070
     1
1070
    44
1040
1.0
1070
    74
1070
     0
1000
MTEXTEND
  0
LINE
  5
216
330
19E
100
AcDbEntity
  8
Symbol (ANSI)
100
AcDbLine
 10
1.534546267375715
 20
5.828287850049897
 30
0.0
 11
2.399460530602353
 21
5.828287850049897
 31
0.0
  0
LINE
  5
217
330
19E
100
AcDbEntity
  8
Symbol (ANSI)
100
AcDbLine
 10
1.534546267375715
 20
5.828287850049897
 30
0.0
 11
1.534546267375715
 21
5.255840833946113
 31
0.0
  0
LINE
  5
218
330
19E
100
AcDbEntity
  8
Symbol (ANSI)
100
AcDbLine
 10
2.399460530602353
 20
5.828287850049897
 30
0.0
 11
2.399460530602353
 21
5.255840833946113
 31
0.0
  0
MTEXT
  5
219
330
19E
100
AcDbEntity
  8
Symbol (ANSI)
100
AcDbMText
 10
1.77517859203224
 20
5.479535979432026
 30
0.0
 40
0.1200000014830762
 41
0.0
 71
     7
 72
     1
  1
0.269
  7
Text Style29
 73
     1
 44
1.0
1001
ACAD
1000
MTEXTBEGIN
1070
    73
1070
     1
1070
    44
1040
1.0
1070
    74
1070
     0
1000
MTEXTEND
  0
LINE
  5
21A
330
19E
100
AcDbEntity
  8
Symbol (ANSI)
100
AcDbLine
 10
2.399460530602353
 20
5.828287850049897
 30
0.0
 11
3.087008760940569
 21
5.828287850049897
 31
0.0
  0
LINE
  5
21B
330
19E
100
AcDbEntity
  8
Symbol (ANSI)
100
AcDbLine
 10
2.399460530602353
 20
5.828287850049897
 30
0.0
 11
2.399460530602353
 21
5.255840833946113
 31
0.0
  0
LINE
  5
21C
330
19E
100
AcDbEntity
  8
Symbol (ANSI)
100
AcDbLine
 10
3.087008760940569
 20
5.828287850049897
 30
0.0
 11
3.087008760940569
 21
5.255840833946113
 31
0.0
  0
MTEXT
  5
21D
330
19E
100
AcDbEntity
  8
Symbol (ANSI)
100
AcDbMText
 10
2.551409838814667
 20
5.479535979432026
 30
0.0
 40
0.1200000014830762
 41
0.0
 71
     7
 72
     1
  1
0.340
  7
Text Style29
 73
     1
 44
1.0
1001
ACAD
1000
MTEXTBEGIN
1070
    73
1070
     1
1070
    44
1040
1.0
1070
    74
1070
     0
1000
MTEXTEND
  0
LINE
  5
21E
330
19E
100
AcDbEntity
  8
Symbol (ANSI)
100
AcDbLine
 10
0.9937943320580258
 20
5.255840833946114
 30
0.0
 11
0.9937943320580258
 21
7.7640644608031
 31
0.0
  0
LINE
  5
21F
330
19E
100
AcDbEntity
  8
Symbol (ANSI)
100
AcDbLine
 10
0.9937943320580258
 20
7.7640644608031
 30
0.0
 11
6.297286434472274
 21
7.7640644608031
 31
0.0
  0
LINE
  5
220
330
19E
100
AcDbEntity
  8
Symbol (ANSI)
100
AcDbLine
 10
6.297286434472274
 20
7.7640644608031
 30
0.0
 11
6.297286434472274
 21
5.255840833946114
 31
0.0
  0
LINE
  5
221
330
19E
100
AcDbEntity
  8
Symbol (ANSI)
100
AcDbLine
 10
6.297286434472274
 20
5.255840833946114
 30
0.0
 11
0.9937943320580258
 21
5.255840833946114
 31
0.0
  0
ENDBLK
  5
1A0
330
19E
100
AcDbEntity
  8
0
100
AcDbBlockEnd
  0
BLOCK
  5
224
330
223
100
AcDbEntity
  8
0
100
AcDbBlockBegin
  2
Leader Text1
 70
     0
 10
0.0
 20
0.0
 30
0.0
  3
Leader Text1
  1

  0
LINE
  5
226
330
223
100
AcDbEntity
  8
Symbol (ANSI)
100
AcDbLine
 10
7.464551143953022
 20
7.057906489955985
 30
0.0
 11
7.437755657527989
 21
6.963198933328835
 31
0.0
  0
POLYLINE
  5
227
330
223
100
AcDbEntity
  8
Symbol (ANSI)
100
AcDb2dPolyline
 66
     1
 10
0.0
 20
0.0
 30
0.0
 70
   128
  0
VERTEX
  5
228
330
227
100
AcDbEntity
  8
Symbol (ANSI)
100
AcDbVertex
100
AcDb2dVertex
 10
7.445609475683977
 20
7.063265672818881
 30
0.0
  0
VERTEX
  5
229
330
227
100
AcDbEntity
  8
Symbol (ANSI)
100
AcDbVertex
100
AcDb2dVertex
 10
7.437755554679809
 20
6.963198954664815
 30
0.0
  0
VERTEX
  5
22B
330
227
100
AcDbEntity
  8
Symbol (ANSI)
100
AcDbVertex
100
AcDb2dVertex
 10
7.483492873785063
 20
7.05254772516686
 30
0.0
  0
VERTEX
  5
22C
330
227
100
AcDbEntity
  8
Symbol (ANSI)
100
AcDbVertex
100
AcDb2dVertex
 10
7.445609475683977
 20
7.063265672818881
 30
0.0
  0
SEQEND
  5
22A
330
227
100
AcDbEntity
  8
Symbol (ANSI)
  0
SOLID
  5
22D
330
223
100
AcDbEntity
  8
Symbol (ANSI)
100
AcDbTrace
 10
7.445609475683977
 20
7.063265672818881
 30
0.0
 11
7.437755554679809
 21
6.963198954664815
 31
0.0
 12
7.483492873785063
 22
7.05254772516686
 32
0.0
 13
7.445609475683977
 23
7.063265672818881
 33
0.0
  0
LINE
  5
22E
330
223
100
AcDbEntity
  8
Symbol (ANSI)
100
AcDbLine
 10
7.445609632627592
 20
7.063265587240991
 30
0.0
 11
7.437755657527989
 21
6.963198933328835
 31
0.0
  0
LINE
  5
22F
330
223
100
AcDbEntity
  8
Symbol (ANSI)
100
AcDbLine
 10
7.437755657527989
 20
6.963198933328835
 30
0.0
 11
7.483492655278451
 21
7.052547392670978
 31
0.0
  0
LINE
  5
230
330
223
100
AcDbEntity
  8
Symbol (ANSI)
100
AcDbLine
 10
7.483492655278451
 20
7.052547392670978
 30
0.0
 11
7.445609632627592
 21
7.063265587240991
 31
0.0
  0
LINE
  5
231
330
223
100
AcDbEntity
  8
Symbol (ANSI)
100
AcDbLine
 10
7.464551143953022
 20
7.057906489955985
 30
0.0
 11
7.542298512772245
 21
7.332701401989357
 31
0.0
  0
LINE
  5
232
330
223
100
AcDbEntity
  8
Symbol (ANSI)
100
AcDbLine
 10
7.542298512772245
 20
7.332701401989357
 30
0.0
 11
7.640723709622639
 21
7.332701401989357
 31
0.0
  0
MTEXT
  5
233
330
223
100
AcDbEntity
  8
Symbol (ANSI)
100
AcDbMText
 10
7.664753298697442
 20
7.271437220937155
 30
0.0
 40
0.1200000014830762
 41
0.0
 71
     7
 72
     1
  1
B2
  7
Text Style29
 73
     1
 44
1.0
1001
ACAD
1000
MTEXTBEGIN
1070
    73
1070
     1
1070
    44
1040
1.0
1070
    74
1070
     0
1000
MTEXTEND
  0
ENDBLK
  5
225
330
223
100
AcDbEntity
  8
0
100
AcDbBlockEnd
  0
BLOCK
  5
236
330
235
100
AcDbEntity
  8
0
100
AcDbBlockBegin
  2
Leader Text2
 70
     0
 10
0.0
 20
0.0
 30
0.0
  3
Leader Text2
  1

  0
LINE
  5
238
330
235
100
AcDbEntity
  8
Symbol (ANSI)
100
AcDbLine
 10
9.540141604964476
 20
6.580731744910389
 30
0.0
 11
9.572570861154261
 21
6.487802402299909
 31
0.0
  0
POLYLINE
  5
239
330
235
100
AcDbEntity
  8
Symbol (ANSI)
100
AcDb2dPolyline
 66
     1
 10
0.0
 20
0.0
 30
0.0
 70
   128
  0
VERTEX
  5
23A
330
239
100
AcDbEntity
  8
Symbol (ANSI)
100
AcDbVertex
100
AcDb2dVertex
 10
9.521555712842564
 20
6.57424626387949
 30
0.0
  0
VERTEX
  5
23B
330
239
100
AcDbEntity
  8
Symbol (ANSI)
100
AcDbVertex
100
AcDb2dVertex
 10
9.572570530448372
 20
6.487802069956861
 30
0.0
  0
VERTEX
  5
23D
330
239
100
AcDbEntity
  8
Symbol (ANSI)
100
AcDbVertex
100
AcDb2dVertex
 10
9.558727234367308
 20
6.587217736431932
 30
0.0
  0
VERTEX
  5
23E
330
239
100
AcDbEntity
  8
Symbol (ANSI)
100
AcDbVertex
100
AcDb2dVertex
 10
9.521555712842564
 20
6.57424626387949
 30
0.0
  0
SEQEND
  5
23C
330
239
100
AcDbEntity
  8
Symbol (ANSI)
  0
SOLID
  5
23F
330
235
100
AcDbEntity
  8
Symbol (ANSI)
100
AcDbTrace
 10
9.521555712842564
 20
6.57424626387949
 30
0.0
 11
9.572570530448372
 21
6.487802069956861
 31
0.0
 12
9.558727234367308
 22
6.587217736431932
 32
0.0
 13
9.521555712842564
 23
6.57424626387949
 33
0.0
  0
LINE
  5
240
330
235
100
AcDbEntity
  8
Symbol (ANSI)
100
AcDbLine
 10
9.52155573644238
 20
6.574245893672432
 30
0.0
 11
9.572570861154261
 21
6.487802402299909
 31
0.0
  0
LINE
  5
241
330
235
100
AcDbEntity
  8
Symbol (ANSI)
100
AcDbLine
 10
9.572570861154261
 20
6.487802402299909
 30
0.0
 11
9.558727473486571
 21
6.587217596148346
 31
0.0
  0
LINE
  5
242
330
235
100
AcDbEntity
  8
Symbol (ANSI)
100
AcDbLine
 10
9.558727473486571
 20
6.587217596148346
 30
0.0
 11
9.52155573644238
 21
6.574245893672432
 31
0.0
  0
LINE
  5
243
330
235
100
AcDbEntity
  8
Symbol (ANSI)
100
AcDbLine
 10
9.540141604964476
 20
6.580731744910389
 30
0.0
 11
9.259123102798922
 21
7.386018937277516
 31
0.0
  0
LINE
  5
244
330
235
100
AcDbEntity
  8
Symbol (ANSI)
100
AcDbLine
 10
9.259123102798922
 20
7.386018937277516
 30
0.0
 11
9.160697905948527
 21
7.386018937277516
 31
0.0
  0
MTEXT
  5
245
330
235
100
AcDbEntity
  8
Symbol (ANSI)
100
AcDbMText
 10
8.997434142918784
 20
7.32582444827543
 30
0.0
 40
0.1200000014830762
 41
0.0
 71
     7
 72
     1
  1
B1
  7
Text Style29
 73
     1
 44
1.0
1001
ACAD
1000
MTEXTBEGIN
1070
    73
1070
     1
1070
    44
1040
1.0
1070
    74
1070
     0
1000
MTEXTEND
  0
ENDBLK
  5
237
330
235
100
AcDbEntity
  8
0
100
AcDbBlockEnd
  0
BLOCK
  5
248
330
247
100
AcDbEntity
  8
0
100
AcDbBlockBegin
  2
Leader Text3
 70
     0
 10
0.0
 20
0.0
 30
0.0
  3
Leader Text3
  1

  0
LINE
  5
24A
330
247
100
AcDbEntity
  8
Symbol (ANSI)
100
AcDbLine
 10
9.790048833917154
 20
5.432148153407878
 30
0.0
 11
9.777395904539066
 21
5.529756671239018
 31
0.0
  0
POLYLINE
  5
24B
330
247
100
AcDbEntity
  8
Symbol (ANSI)
100
AcDb2dPolyline
 66
     1
 10
0.0
 20
0.0
 30
0.0
 70
   128
  0
VERTEX
  5
24C
330
24B
100
AcDbEntity
  8
Symbol (ANSI)
100
AcDbVertex
100
AcDb2dVertex
 10
9.809570612869862
 20
5.434678670928233
 30
0.0
  0
VERTEX
  5
24D
330
24B
100
AcDbEntity
  8
Symbol (ANSI)
100
AcDbVertex
100
AcDb2dVertex
 10
9.77739574402336
 20
5.529756621112973
 30
0.0
  0
VERTEX
  5
24F
330
24B
100
AcDbEntity
  8
Symbol (ANSI)
100
AcDbVertex
100
AcDb2dVertex
 10
9.770527036171259
 20
5.429617438729353
 30
0.0
  0
VERTEX
  5
250
330
24B
100
AcDbEntity
  8
Symbol (ANSI)
100
AcDbVertex
100
AcDb2dVertex
 10
9.809570612869862
 20
5.434678670928233
 30
0.0
  0
SEQEND
  5
24E
330
24B
100
AcDbEntity
  8
Symbol (ANSI)
  0
SOLID
  5
251
330
247
100
AcDbEntity
  8
Symbol (ANSI)
100
AcDbTrace
 10
9.809570612869862
 20
5.434678670928233
 30
0.0
 11
9.77739574402336
 21
5.529756621112973
 31
0.0
 12
9.770527036171259
 22
5.429617438729353
 32
0.0
 13
9.809570612869862
 23
5.434678670928233
 33
0.0
  0
LINE
  5
252
330
247
100
AcDbEntity
  8
Symbol (ANSI)
100
AcDbLine
 10
9.809570537483381
 20
5.434678739283495
 30
0.0
 11
9.777395904539066
 21
5.529756671239018
 31
0.0
  0
LINE
  5
253
330
247
100
AcDbEntity
  8
Symbol (ANSI)
100
AcDbLine
 10
9.777395904539066
 20
5.529756671239018
 30
0.0
 11
9.770527130350926
 21
5.429617567532261
 31
0.0
  0
LINE
  5
254
330
247
100
AcDbEntity
  8
Symbol (ANSI)
100
AcDbLine
 10
9.770527130350926
 20
5.429617567532261
 30
0.0
 11
9.809570537483381
 21
5.434678739283495
 31
0.0
  0
LINE
  5
255
330
247
100
AcDbEntity
  8
Symbol (ANSI)
100
AcDbLine
 10
9.790048833917154
 20
5.432148153407878
 30
0.0
 11
9.824288961627578
 21
5.168009469290081
 31
0.0
  0
LINE
  5
256
330
247
100
AcDbEntity
  8
Symbol (ANSI)
100
AcDbLine
 10
9.824288961627578
 20
5.168009469290081
 30
0.0
 11
9.981733753246823
 21
5.168009469290081
 31
0.0
  0
MTEXT
  5
257
330
247
100
AcDbEntity
  8
Symbol (ANSI)
100
AcDbMText
 10
9.992306772439738
 20
5.105870085651418
 30
0.0
 40
0.1200000014830762
 41
0.0
 71
     7
 72
     1
  1
C1
  7
Text Style29
 73
     1
 44
1.0
1001
ACAD
1000
MTEXTBEGIN
1070
    73
1070
     1
1070
    44
1040
1.0
1070
    74
1070
     0
1000
MTEXTEND
  0
ENDBLK
  5
249
330
247
100
AcDbEntity
  8
0
100
AcDbBlockEnd
  0
BLOCK
  5
25A
330
259
100
AcDbEntity
  8
0
100
AcDbBlockBegin
  2
Leader Text4
 70
     0
 10
0.0
 20
0.0
 30
0.0
  3
Leader Text4
  1

  0
LINE
  5
25C
330
259
100
AcDbEntity
  8
Symbol (ANSI)
100
AcDbLine
 10
8.045135901055257
 20
6.936484961036831
 30
0.0
 11
8.01859436747199
 21
6.841705921317664
 31
0.0
  0
POLYLINE
  5
25D
330
259
100
AcDbEntity
  8
Symbol (ANSI)
100
AcDb2dPolyline
 66
     1
 10
0.0
 20
0.0
 30
0.0
 70
   128
  0
VERTEX
  5
25E
330
25D
100
AcDbEntity
  8
Symbol (ANSI)
100
AcDbVertex
100
AcDb2dVertex
 10
8.026180117149051
 20
6.941793096347117
 30
0.0
  0
VERTEX
  5
25F
330
25D
100
AcDbEntity
  8
Symbol (ANSI)
100
AcDbVertex
100
AcDb2dVertex
 10
8.018594276248
 20
6.841706103227269
 30
0.0
  0
VERTEX
  5
261
330
25D
100
AcDbEntity
  8
Symbol (ANSI)
100
AcDbVertex
100
AcDb2dVertex
 10
8.064092050387163
 20
6.931176523524006
 30
0.0
  0
VERTEX
  5
262
330
25D
100
AcDbEntity
  8
Symbol (ANSI)
100
AcDbVertex
100
AcDb2dVertex
 10
8.026180117149051
 20
6.941793096347117
 30
0.0
  0
SEQEND
  5
260
330
25D
100
AcDbEntity
  8
Symbol (ANSI)
  0
SOLID
  5
263
330
259
100
AcDbEntity
  8
Symbol (ANSI)
100
AcDbTrace
 10
8.026180117149051
 20
6.941793096347117
 30
0.0
 11
8.018594276248
 21
6.841706103227269
 31
0.0
 12
8.064092050387163
 22
6.931176523524006
 32
0.0
 13
8.026180117149051
 23
6.941793096347117
 33
0.0
  0
LINE
  5
264
330
259
100
AcDbEntity
  8
Symbol (ANSI)
100
AcDbLine
 10
8.026180093111422
 20
6.941793267753483
 30
0.0
 11
8.01859436747199
 21
6.841705921317664
 31
0.0
  0
LINE
  5
265
330
259
100
AcDbEntity
  8
Symbol (ANSI)
100
AcDbLine
 10
8.01859436747199
 20
6.841705921317664
 30
0.0
 11
8.06409170899909
 21
6.931176654320178
 31
0.0
  0
LINE
  5
266
330
259
100
AcDbEntity
  8
Symbol (ANSI)
100
AcDbLine
 10
8.06409170899909
 20
6.931176654320178
 30
0.0
 11
8.026180093111422
 21
6.941793267753483
 31
0.0
  0
LINE
  5
267
330
259
100
AcDbEntity
  8
Symbol (ANSI)
100
AcDbLine
 10
8.045135901055257
 20
6.936484961036831
 30
0.0
 11
8.150118398682311
 21
7.311374387874094
 31
0.0
  0
LINE
  5
268
330
259
100
AcDbEntity
  8
Symbol (ANSI)
100
AcDbLine
 10
8.150118398682311
 20
7.311374387874094
 30
0.0
 11
8.248543595532705
 21
7.311374387874094
 31
0.0
  0
MTEXT
  5
269
330
259
100
AcDbEntity
  8
Symbol (ANSI)
100
AcDbMText
 10
8.259116614725618
 20
7.249040514771773
 30
0.0
 40
0.1200000014830762
 41
0.0
 71
     7
 72
     1
  1
C2
  7
Text Style29
 73
     1
 44
1.0
1001
ACAD
1000
MTEXTBEGIN
1070
    73
1070
     1
1070
    44
1040
1.0
1070
    74
1070
     0
1000
MTEXTEND
  0
ENDBLK
  5
25B
330
259
100
AcDbEntity
  8
0
100
AcDbBlockEnd
  0
BLOCK
  5
26C
330
26B
100
AcDbEntity
  8
0
100
AcDbBlockBegin
  2
Leader Text5
 70
     0
 10
0.0
 20
0.0
 30
0.0
  3
Leader Text5
  1

  0
LINE
  5
26E
330
26B
100
AcDbEntity
  8
Symbol (ANSI)
100
AcDbLine
 10
8.072655706526155
 20
5.44938603318861
 30
0.0
 11
8.036315277358491
 21
5.540856753000737
 31
0.0
  0
POLYLINE
  5
26F
330
26B
100
AcDbEntity
  8
Symbol (ANSI)
100
AcDb2dPolyline
 66
     1
 10
0.0
 20
0.0
 30
0.0
 70
   128
  0
VERTEX
  5
270
330
26F
100
AcDbEntity
  8
Symbol (ANSI)
100
AcDbVertex
100
AcDb2dVertex
 10
8.090949621726208
 20
5.45665410559947
 30
0.0
  0
VERTEX
  5
271
330
26F
100
AcDbEntity
  8
Symbol (ANSI)
100
AcDbVertex
100
AcDb2dVertex
 10
8.036315347266008
 20
5.540856789416214
 30
0.0
  0
VERTEX
  5
273
330
26F
100
AcDbEntity
  8
Symbol (ANSI)
100
AcDbVertex
100
AcDb2dVertex
 10
8.054361568661185
 20
5.44211808152086
 30
0.0
  0
VERTEX
  5
274
330
26F
100
AcDbEntity
  8
Symbol (ANSI)
100
AcDbVertex
100
AcDb2dVertex
 10
8.090949621726208
 20
5.45665410559947
 30
0.0
  0
SEQEND
  5
272
330
26F
100
AcDbEntity
  8
Symbol (ANSI)
  0
SOLID
  5
275
330
26B
100
AcDbEntity
  8
Symbol (ANSI)
100
AcDbTrace
 10
8.090949621726208
 20
5.45665410559947
 30
0.0
 11
8.036315347266008
 21
5.540856789416214
 31
0.0
 12
8.054361568661185
 22
5.44211808152086
 32
0.0
 13
8.090949621726208
 23
5.45665410559947
 33
0.0
  0
LINE
  5
276
330
26B
100
AcDbEntity
  8
Symbol (ANSI)
100
AcDbLine
 10
8.090949850488582
 20
5.456654119022142
 30
0.0
 11
8.036315277358491
 21
5.540856753000737
 31
0.0
  0
LINE
  5
277
330
26B
100
AcDbEntity
  8
Symbol (ANSI)
100
AcDbLine
 10
8.036315277358491
 20
5.540856753000737
 30
0.0
 11
8.05436156256373
 21
5.442117947355078
 31
0.0
  0
LINE
  5
278
330
26B
100
AcDbEntity
  8
Symbol (ANSI)
100
AcDbLine
 10
8.05436156256373
 20
5.442117947355078
 30
0.0
 11
8.090949850488582
 21
5.456654119022142
 31
0.0
  0
LINE
  5
279
330
26B
100
AcDbEntity
  8
Symbol (ANSI)
100
AcDbLine
 10
8.072655706526155
 20
5.44938603318861
 30
0.0
 11
8.214099439304423
 21
5.093364919886657
 31
0.0
  0
LINE
  5
27A
330
26B
100
AcDbEntity
  8
Symbol (ANSI)
100
AcDbLine
 10
8.214099439304423
 20
5.093364919886657
 30
0.0
 11
8.312524636154817
 21
5.093364919886657
 31
0.0
  0
MTEXT
  5
27B
330
26B
100
AcDbEntity
  8
Symbol (ANSI)
100
AcDbMText
 10
8.310986742454028
 20
5.033170430884572
 30
0.0
 40
0.1200000014830762
 41
0.0
 71
     7
 72
     1
  1
A1
  7
Text Style29
 73
     1
 44
1.0
1001
ACAD
1000
MTEXTBEGIN
1070
    73
1070
     1
1070
    44
1040
1.0
1070
    74
1070
     0
1000
MTEXTEND
  0
ENDBLK
  5
26D
330
26B
100
AcDbEntity
  8
0
100
AcDbBlockEnd
  0
BLOCK
  5
27E
330
27D
100
AcDbEntity
  8
0
100
AcDbBlockBegin
  2
Leader Text6
 70
     0
 10
0.0
 20
0.0
 30
0.0
  3
Leader Text6
  1

  0
LINE
  5
280
330
27D
100
AcDbEntity
  8
Symbol (ANSI)
100
AcDbLine
 10
8.829917238107761
 20
5.438188179298126
 30
0.0
 11
8.805931556710552
 21
5.533646057249349
 31
0.0
  0
POLYLINE
  5
281
330
27D
100
AcDbEntity
  8
Symbol (ANSI)
100
AcDb2dPolyline
 66
     1
 10
0.0
 20
0.0
 30
0.0
 70
   128
  0
VERTEX
  5
282
330
281
100
AcDbEntity
  8
Symbol (ANSI)
100
AcDbVertex
100
AcDb2dVertex
 10
8.849008815495047
 20
5.442985399501529
 30
0.0
  0
VERTEX
  5
283
330
281
100
AcDbEntity
  8
Symbol (ANSI)
100
AcDbVertex
100
AcDb2dVertex
 10
8.805931271530511
 20
5.533646035382127
 30
0.0
  0
VERTEX
  5
285
330
281
100
AcDbEntity
  8
Symbol (ANSI)
100
AcDbVertex
100
AcDb2dVertex
 10
8.810825798455185
 20
5.433391210601085
 30
0.0
  0
VERTEX
  5
286
330
281
100
AcDbEntity
  8
Symbol (ANSI)
100
AcDbVertex
100
AcDb2dVertex
 10
8.849008815495047
 20
5.442985399501529
 30
0.0
  0
SEQEND
  5
284
330
281
100
AcDbEntity
  8
Symbol (ANSI)
  0
SOLID
  5
287
330
27D
100
AcDbEntity
  8
Symbol (ANSI)
100
AcDbTrace
 10
8.849008815495047
 20
5.442985399501529
 30
0.0
 11
8.805931271530511
 21
5.533646035382127
 31
0.0
 12
8.810825798455185
 22
5.433391210601085
 32
0.0
 13
8.849008815495047
 23
5.442985399501529
 33
0.0
  0
LINE
  5
288
330
27D
100
AcDbEntity
  8
Symbol (ANSI)
100
AcDbLine
 10
8.849008813698002
 20
5.442985315577567
 30
0.0
 11
8.805931556710552
 21
5.533646057249349
 31
0.0
  0
LINE
  5
289
330
27D
100
AcDbEntity
  8
Symbol (ANSI)
100
AcDbLine
 10
8.805931556710552
 20
5.533646057249349
 30
0.0
 11
8.810825662517515
 21
5.433391043018684
 31
0.0
  0
LINE
  5
28A
330
27D
100
AcDbEntity
  8
Symbol (ANSI)
100
AcDbLine
 10
8.810825662517515
 20
5.433391043018684
 30
0.0
 11
8.849008813698002
 21
5.442985315577567
 31
0.0
  0
LINE
  5
28B
330
27D
100
AcDbEntity
  8
Symbol (ANSI)
100
AcDbLine
 10
8.829917238107761
 20
5.438188179298126
 30
0.0
 11
8.920477014327564
 21
5.077779653789781
 31
0.0
  0
LINE
  5
28C
330
27D
100
AcDbEntity
  8
Symbol (ANSI)
100
AcDbLine
 10
8.920477014327564
 20
5.077779653789781
 30
0.0
 11
9.018902211177959
 21
5.077779653789781
 31
0.0
  0
MTEXT
  5
28D
330
27D
100
AcDbEntity
  8
Symbol (ANSI)
100
AcDbMText
 10
9.01736431747717
 20
5.016515472737578
 30
0.0
 40
0.1200000014830762
 41
0.0
 71
     7
 72
     1
  1
A2
  7
Text Style29
 73
     1
 44
1.0
1001
ACAD
1000
MTEXTBEGIN
1070
    73
1070
     1
1070
    44
1040
1.0
1070
    74
1070
     0
1000
MTEXTEND
  0
ENDBLK
  5
27F
330
27D
100
AcDbEntity
  8
0
100
AcDbBlockEnd
  0
BLOCK
  5
290
330
28F
100
AcDbEntity
  8
0
100
AcDbBlockBegin
  2
Hole Table2
 70
     0
 10
0.0
 20
0.0
 30
0.0
  3
Hole Table2
  1

  0
MTEXT
  5
292
330
28F
100
AcDbEntity
  8
Symbol (ANSI)
100
AcDbMText
 10
3.124012299987731
 20
3.636521801157789
 30
0.0
 40
0.1200000014830762
 41
0.0
 71
     7
 72
     1
  1
Hole Table
  7
Text Style29
 73
     1
 44
1.0
1001
ACAD
1000
MTEXTBEGIN
1070
    73
1070
     1
1070
    44
1040
1.0
1070
    74
1070
     0
1000
MTEXTEND
  0
LINE
  5
293
330
28F
100
AcDbEntity
  8
Symbol (ANSI)
100
AcDbLine
 10
1.037175350068785
 20
3.605420841515008
 30
0.0
 11
1.547325748842781
 21
3.605420841515008
 31
0.0
  0
LINE
  5
294
330
28F
100
AcDbEntity
  8
Symbol (ANSI)
100
AcDbLine
 10
1.547325748842781
 20
3.605420841515008
 30
0.0
 11
1.547325748842781
 21
3.415342099874451
 31
0.0
  0
LINE
  5
295
330
28F
100
AcDbEntity
  8
Symbol (ANSI)
100
AcDbLine
 10
1.037175350068785
 20
3.415342099874451
 30
0.0
 11
1.547325748842781
 21
3.415342099874451
 31
0.0
  0
MTEXT
  5
296
330
28F
100
AcDbEntity
  8
Symbol (ANSI)
100
AcDbMText
 10
1.114837676277766
 20
3.447853108128751
 30
0.0
 40
0.1200000014830762
 41
0.0
 71
     7
 72
     1
  1
HOLE
  7
Text Style29
 73
     1
 44
1.0
1001
ACAD
1000
MTEXTBEGIN
1070
    73
1070
     1
1070
    44
1040
1.0
1070
    74
1070
     0
1000
MTEXTEND
  0
LINE
  5
297
330
28F
100
AcDbEntity
  8
Symbol (ANSI)
100
AcDbLine
 10
1.547325748842781
 20
3.605420841515008
 30
0.0
 11
2.137876929945143
 21
3.605420841515008
 31
0.0
  0
LINE
  5
298
330
28F
100
AcDbEntity
  8
Symbol (ANSI)
100
AcDbLine
 10
1.547325748842781
 20
3.605420841515008
 30
0.0
 11
1.547325748842781
 21
3.415342099874451
 31
0.0
  0
LINE
  5
299
330
28F
100
AcDbEntity
  8
Symbol (ANSI)
100
AcDbLine
 10
2.137876929945143
 20
3.605420841515008
 30
0.0
 11
2.137876929945143
 21
3.415342099874451
 31
0.0
  0
LINE
  5
29A
330
28F
100
AcDbEntity
  8
Symbol (ANSI)
100
AcDbLine
 10
1.547325748842781
 20
3.415342099874451
 30
0.0
 11
2.137876929945143
 21
3.415342099874451
 31
0.0
  0
MTEXT
  5
29B
330
28F
100
AcDbEntity
  8
Symbol (ANSI)
100
AcDbMText
 10
1.645713610657805
 20
3.450381471156303
 30
0.0
 40
0.1200000014830762
 41
0.0
 71
     7
 72
     1
  1
XDIM
  7
Text Style29
 73
     1
 44
1.0
1001
ACAD
1000
MTEXTBEGIN
1070
    73
1070
     1
1070
    44
1040
1.0
1070
    74
1070
     0
1000
MTEXTEND
  0
LINE
  5
29C
330
28F
100
AcDbEntity
  8
Symbol (ANSI)
100
AcDbLine
 10
2.137876929945143
 20
3.605420841515008
 30
0.0
 11
2.728428111047505
 21
3.605420841515008
 31
0.0
  0
LINE
  5
29D
330
28F
100
AcDbEntity
  8
Symbol (ANSI)
100
AcDbLine
 10
2.137876929945143
 20
3.605420841515008
 30
0.0
 11
2.137876929945143
 21
3.415342099874451
 31
0.0
  0
LINE
  5
29E
330
28F
100
AcDbEntity
  8
Symbol (ANSI)
100
AcDbLine
 10
2.728428111047505
 20
3.605420841515008
 30
0.0
 11
2.728428111047505
 21
3.415342099874451
 31
0.0
  0
LINE
  5
29F
330
28F
100
AcDbEntity
  8
Symbol (ANSI)
100
AcDbLine
 10
2.137876929945143
 20
3.415342099874451
 30
0.0
 11
2.728428111047505
 21
3.415342099874451
 31
0.0
  0
MTEXT
  5
2A0
330
28F
100
AcDbEntity
  8
Symbol (ANSI)
100
AcDbMText
 10
2.233529360960098
 20
3.450381471156303
 30
0.0
 40
0.1200000014830762
 41
0.0
 71
     7
 72
     1
  1
YDIM
  7
Text Style29
 73
     1
 44
1.0
1001
ACAD
1000
MTEXTBEGIN
1070
    73
1070
     1
1070
    44
1040
1.0
1070
    74
1070
     0
1000
MTEXTEND
  0
LINE
  5
2A1
330
28F
100
AcDbEntity
  8
Symbol (ANSI)
100
AcDbLine
 10
2.728428111047505
 20
3.605420841515008
 30
0.0
 11
5.93870578457921
 21
3.605420841515008
 31
0.0
  0
LINE
  5
2A2
330
28F
100
AcDbEntity
  8
Symbol (ANSI)
100
AcDbLine
 10
2.728428111047505
 20
3.605420841515008
 30
0.0
 11
2.728428111047505
 21
3.415342099874451
 31
0.0
  0
LINE
  5
2A3
330
28F
100
AcDbEntity
  8
Symbol (ANSI)
100
AcDbLine
 10
2.728428111047505
 20
3.415342099874451
 30
0.0
 11
5.93870578457921
 21
3.415342099874451
 31
0.0
  0
MTEXT
  5
2A4
330
28F
100
AcDbEntity
  8
Symbol (ANSI)
100
AcDbMText
 10
3.839914192932107
 20
3.447853108128751
 30
0.0
 40
0.1200000014830762
 41
0.0
 71
     7
 72
     1
  1
DESCRIPTION
  7
Text Style29
 73
     1
 44
1.0
1001
ACAD
1000
MTEXTBEGIN
1070
    73
1070
     1
1070
    44
1040
1.0
1070
    74
1070
     0
1000
MTEXTEND
  0
LINE
  5
2A5
330
28F
100
AcDbEntity
  8
Symbol (ANSI)
100
AcDbLine
 10
1.037175350068785
 20
3.415342099874451
 30
0.0
 11
1.547325748842781
 21
3.415342099874451
 31
0.0
  0
LINE
  5
2A6
330
28F
100
AcDbEntity
  8
Symbol (ANSI)
100
AcDbLine
 10
1.547325748842781
 20
3.415342099874451
 30
0.0
 11
1.547325748842781
 21
3.169549072032374
 31
0.0
  0
LINE
  5
2A7
330
28F
100
AcDbEntity
  8
Symbol (ANSI)
100
AcDbLine
 10
1.037175350068785
 20
3.169549072032374
 30
0.0
 11
1.547325748842781
 21
3.169549072032374
 31
0.0
  0
MTEXT
  5
2A8
330
28F
100
AcDbEntity
  8
Symbol (ANSI)
100
AcDbMText
 10
1.283174504436363
 20
3.232251096951328
 30
0.0
 40
0.1200000014830762
 41
0.0
 71
     7
 72
     1
  1
1
  7
Text Style29
 73
     1
 44
1.0
1001
ACAD
1000
MTEXTBEGIN
1070
    73
1070
     1
1070
    44
1040
1.0
1070
    74
1070
     0
1000
MTEXTEND
  0
LINE
  5
2A9
330
28F
100
AcDbEntity
  8
Symbol (ANSI)
100
AcDbLine
 10
1.547325748842781
 20
3.415342099874451
 30
0.0
 11
2.137876929945143
 21
3.415342099874451
 31
0.0
  0
LINE
  5
2AA
330
28F
100
AcDbEntity
  8
Symbol (ANSI)
100
AcDbLine
 10
1.547325748842781
 20
3.415342099874451
 30
0.0
 11
1.547325748842781
 21
3.169549072032374
 31
0.0
  0
LINE
  5
2AB
330
28F
100
AcDbEntity
  8
Symbol (ANSI)
100
AcDbLine
 10
2.137876929945143
 20
3.415342099874451
 30
0.0
 11
2.137876929945143
 21
3.169549072032374
 31
0.0
  0
LINE
  5
2AC
330
28F
100
AcDbEntity
  8
Symbol (ANSI)
100
AcDbLine
 10
1.547325748842781
 20
3.169549072032374
 30
0.0
 11
2.137876929945143
 21
3.169549072032374
 31
0.0
  0
MTEXT
  5
2AD
330
28F
100
AcDbEntity
  8
Symbol (ANSI)
100
AcDbMText
 10
1.650776532437168
 20
3.229722733923777
 30
0.0
 40
0.1200000014830762
 41
0.0
 71
     7
 72
     1
  1
0.368
  7
Text Style29
 73
     1
 44
1.0
1001
ACAD
1000
MTEXTBEGIN
1070
    73
1070
     1
1070
    44
1040
1.0
1070
    74
1070
     0
1000
MTEXTEND
  0
LINE
  5
2AE
330
28F
100
AcDbEntity
  8
Symbol (ANSI)
100
AcDbLine
 10
2.137876929945143
 20
3.415342099874451
 30
0.0
 11
2.728428111047505
 21
3.415342099874451
 31
0.0
  0
LINE
  5
2AF
330
28F
100
AcDbEntity
  8
Symbol (ANSI)
100
AcDbLine
 10
2.137876929945143
 20
3.415342099874451
 30
0.0
 11
2.137876929945143
 21
3.169549072032374
 31
0.0
  0
LINE
  5
2B0
330
28F
100
AcDbEntity
  8
Symbol (ANSI)
100
AcDbLine
 10
2.728428111047505
 20
3.415342099874451
 30
0.0
 11
2.728428111047505
 21
3.169549072032374
 31
0.0
  0
LINE
  5
2B1
330
28F
100
AcDbEntity
  8
Symbol (ANSI)
100
AcDbLine
 10
2.137876929945143
 20
3.169549072032374
 30
0.0
 11
2.728428111047505
 21
3.169549072032374
 31
0.0
  0
MTEXT
  5
2B2
330
28F
100
AcDbEntity
  8
Symbol (ANSI)
100
AcDbMText
 10
2.212529752882695
 20
3.229965845753349
 30
0.0
 40
0.1200000014830762
 41
0.0
 71
     7
 72
     1
  1
-0.099
  7
Text Style29
 73
     1
 44
1.0
1001
ACAD
1000
MTEXTBEGIN
1070
    73
1070
     1
1070
    44
1040
1.0
1070
    74
1070
     0
1000
MTEXTEND
  0
MTEXT
  5
2B3
330
28F
100
AcDbEntity
  8
Symbol (ANSI)
100
AcDbMText
 10
3.513857948361668
 20
3.234704272564638
 30
0.0
 40
0.1200000014830762
 41
0.0
 71
     7
 72
     1
  1
DRILL 
  7
Text Style29
 73
     1
 44
1.0
1001
ACAD
1000
MTEXTBEGIN
1070
    73
1070
     1
1070
    44
1040
1.0
1070
    74
1070
     0
1000
MTEXTEND
  0
MTEXT
  5
2B4
330
28F
100
AcDbEntity
  8
Symbol (ANSI)
100
AcDbMText
 10
3.99524153297742
 20
3.204588442111115
 30
0.0
 40
0.1200000014830762
 41
0.0
 71
     7
 72
     1
  1
n
  7
Text Style6
 73
     1
 44
1.0
1001
ACAD
1000
MTEXTBEGIN
1070
    73
1070
     1
1070
    44
1040
1.0
1070
    74
1070
     0
1000
MTEXTEND
  0
MTEXT
  5
2B5
330
28F
100
AcDbEntity
  8
Symbol (ANSI)
100
AcDbMText
 10
4.129143590396093
 20
3.231981420073429
 30
0.0
 40
0.1200000014830762
 41
0.0
 71
     7
 72
     1
  1
0.089 in THRU
  7
Text Style29
 73
     1
 44
1.0
1001
ACAD
1000
MTEXTBEGIN
1070
    73
1070
     1
1070
    44
1040
1.0
1070
    74
1070
     0
1000
MTEXTEND
  0
LINE
  5
2B6
330
28F
100
AcDbEntity
  8
Symbol (ANSI)
100
AcDbLine
 10
1.037175350068785
 20
3.169549072032374
 30
0.0
 11
1.547325748842781
 21
3.169549072032374
 31
0.0
  0
LINE
  5
2B7
330
28F
100
AcDbEntity
  8
Symbol (ANSI)
100
AcDbLine
 10
1.547325748842781
 20
3.169549072032374
 30
0.0
 11
1.547325748842781
 21
2.923756044190298
 31
0.0
  0
LINE
  5
2B8
330
28F
100
AcDbEntity
  8
Symbol (ANSI)
100
AcDbLine
 10
1.037175350068785
 20
2.923756044190298
 30
0.0
 11
1.547325748842781
 21
2.923756044190298
 31
0.0
  0
MTEXT
  5
2B9
330
28F
100
AcDbEntity
  8
Symbol (ANSI)
100
AcDbMText
 10
1.264527543314316
 20
2.985388377059133
 30
0.0
 40
0.1200000014830762
 41
0.0
 71
     7
 72
     1
  1
2
  7
Text Style29
 73
     1
 44
1.0
1001
ACAD
1000
MTEXTBEGIN
1070
    73
1070
     1
1070
    44
1040
1.0
1070
    74
1070
     0
1000
MTEXTEND
  0
LINE
  5
2BA
330
28F
100
AcDbEntity
  8
Symbol (ANSI)
100
AcDbLine
 10
1.547325748842781
 20
3.169549072032374
 30
0.0
 11
2.137876929945143
 21
3.169549072032374
 31
0.0
  0
LINE
  5
2BB
330
28F
100
AcDbEntity
  8
Symbol (ANSI)
100
AcDbLine
 10
1.547325748842781
 20
3.169549072032374
 30
0.0
 11
1.547325748842781
 21
2.923756044190298
 31
0.0
  0
LINE
  5
2BC
330
28F
100
AcDbEntity
  8
Symbol (ANSI)
100
AcDbLine
 10
2.137876929945143
 20
3.169549072032374
 30
0.0
 11
2.137876929945143
 21
2.923756044190298
 31
0.0
  0
LINE
  5
2BD
330
28F
100
AcDbEntity
  8
Symbol (ANSI)
100
AcDbLine
 10
1.547325748842781
 20
2.923756044190298
 30
0.0
 11
2.137876929945143
 21
2.923756044190298
 31
0.0
  0
MTEXT
  5
2BE
330
28F
100
AcDbEntity
  8
Symbol (ANSI)
100
AcDbMText
 10
1.650776532437168
 20
2.984172817911272
 30
0.0
 40
0.1200000014830762
 41
0.0
 71
     7
 72
     1
  1
0.566
  7
Text Style29
 73
     1
 44
1.0
1001
ACAD
1000
MTEXTBEGIN
1070
    73
1070
     1
1070
    44
1040
1.0
1070
    74
1070
     0
1000
MTEXTEND
  0
LINE
  5
2BF
330
28F
100
AcDbEntity
  8
Symbol (ANSI)
100
AcDbLine
 10
2.137876929945143
 20
3.169549072032374
 30
0.0
 11
2.728428111047505
 21
3.169549072032374
 31
0.0
  0
LINE
  5
2C0
330
28F
100
AcDbEntity
  8
Symbol (ANSI)
100
AcDbLine
 10
2.137876929945143
 20
3.169549072032374
 30
0.0
 11
2.137876929945143
 21
2.923756044190298
 31
0.0
  0
LINE
  5
2C1
330
28F
100
AcDbEntity
  8
Symbol (ANSI)
100
AcDbLine
 10
2.728428111047505
 20
3.169549072032374
 30
0.0
 11
2.728428111047505
 21
2.923756044190298
 31
0.0
  0
LINE
  5
2C2
330
28F
100
AcDbEntity
  8
Symbol (ANSI)
100
AcDbLine
 10
2.137876929945143
 20
2.923756044190298
 30
0.0
 11
2.728428111047505
 21
2.923756044190298
 31
0.0
  0
MTEXT
  5
2C3
330
28F
100
AcDbEntity
  8
Symbol (ANSI)
100
AcDbMText
 10
2.212529752882695
 20
2.984172817911272
 30
0.0
 40
0.1200000014830762
 41
0.0
 71
     7
 72
     1
  1
-0.099
  7
Text Style29
 73
     1
 44
1.0
1001
ACAD
1000
MTEXTBEGIN
1070
    73
1070
     1
1070
    44
1040
1.0
1070
    74
1070
     0
1000
MTEXTEND
  0
LINE
  5
2C4
330
28F
100
AcDbEntity
  8
Symbol (ANSI)
100
AcDbLine
 10
1.037175350068785
 20
2.923756044190298
 30
0.0
 11
1.547325748842781
 21
2.923756044190298
 31
0.0
  0
LINE
  5
2C5
330
28F
100
AcDbEntity
  8
Symbol (ANSI)
100
AcDbLine
 10
1.547325748842781
 20
2.923756044190298
 30
0.0
 11
1.547325748842781
 21
2.677963016348221
 31
0.0
  0
LINE
  5
2C6
330
28F
100
AcDbEntity
  8
Symbol (ANSI)
100
AcDbLine
 10
1.037175350068785
 20
2.677963016348221
 30
0.0
 11
1.547325748842781
 21
2.677963016348221
 31
0.0
  0
MTEXT
  5
2C7
330
28F
100
AcDbEntity
  8
Symbol (ANSI)
100
AcDbMText
 10
1.262605176188331
 20
2.738331167703282
 30
0.0
 40
0.1200000014830762
 41
0.0
 71
     7
 72
     1
  1
3
  7
Text Style29
 73
     1
 44
1.0
1001
ACAD
1000
MTEXTBEGIN
1070
    73
1070
     1
1070
    44
1040
1.0
1070
    74
1070
     0
1000
MTEXTEND
  0
LINE
  5
2C8
330
28F
100
AcDbEntity
  8
Symbol (ANSI)
100
AcDbLine
 10
1.547325748842781
 20
2.923756044190298
 30
0.0
 11
2.137876929945143
 21
2.923756044190298
 31
0.0
  0
LINE
  5
2C9
330
28F
100
AcDbEntity
  8
Symbol (ANSI)
100
AcDbLine
 10
1.547325748842781
 20
2.923756044190298
 30
0.0
 11
1.547325748842781
 21
2.677963016348221
 31
0.0
  0
LINE
  5
2CA
330
28F
100
AcDbEntity
  8
Symbol (ANSI)
100
AcDbLine
 10
2.137876929945143
 20
2.923756044190298
 30
0.0
 11
2.137876929945143
 21
2.677963016348221
 31
0.0
  0
LINE
  5
2CB
330
28F
100
AcDbEntity
  8
Symbol (ANSI)
100
AcDbLine
 10
1.547325748842781
 20
2.677963016348221
 30
0.0
 11
2.137876929945143
 21
2.677963016348221
 31
0.0
  0
MTEXT
  5
2CC
330
28F
100
AcDbEntity
  8
Symbol (ANSI)
100
AcDbMText
 10
1.605752216295243
 20
2.738379790069196
 30
0.0
 40
0.1200000014830762
 41
0.0
 71
     7
 72
     1
  1
0.5751
  7
Text Style29
 73
     1
 44
1.0
1001
ACAD
1000
MTEXTBEGIN
1070
    73
1070
     1
1070
    44
1040
1.0
1070
    74
1070
     0
1000
MTEXTEND
  0
LINE
  5
2CD
330
28F
100
AcDbEntity
  8
Symbol (ANSI)
100
AcDbLine
 10
2.137876929945143
 20
2.923756044190298
 30
0.0
 11
2.728428111047505
 21
2.923756044190298
 31
0.0
  0
LINE
  5
2CE
330
28F
100
AcDbEntity
  8
Symbol (ANSI)
100
AcDbLine
 10
2.137876929945143
 20
2.923756044190298
 30
0.0
 11
2.137876929945143
 21
2.677963016348221
 31
0.0
  0
LINE
  5
2CF
330
28F
100
AcDbEntity
  8
Symbol (ANSI)
100
AcDbLine
 10
2.728428111047505
 20
2.923756044190298
 30
0.0
 11
2.728428111047505
 21
2.677963016348221
 31
0.0
  0
LINE
  5
2D0
330
28F
100
AcDbEntity
  8
Symbol (ANSI)
100
AcDbLine
 10
2.137876929945143
 20
2.677963016348221
 30
0.0
 11
2.728428111047505
 21
2.677963016348221
 31
0.0
  0
MTEXT
  5
2D1
330
28F
100
AcDbEntity
  8
Symbol (ANSI)
100
AcDbMText
 10
2.167505436740771
 20
2.738331167703282
 30
0.0
 40
0.1200000014830762
 41
0.0
 71
     7
 72
     1
  1
-0.2500
  7
Text Style29
 73
     1
 44
1.0
1001
ACAD
1000
MTEXTBEGIN
1070
    73
1070
     1
1070
    44
1040
1.0
1070
    74
1070
     0
1000
MTEXTEND
  0
MTEXT
  5
2D2
330
28F
100
AcDbEntity
  8
Symbol (ANSI)
100
AcDbMText
 10
3.432275809738828
 20
2.743118216880485
 30
0.0
 40
0.1200000014830762
 41
0.0
 71
     7
 72
     1
  1
REAM 
  7
Text Style29
 73
     1
 44
1.0
1001
ACAD
1000
MTEXTBEGIN
1070
    73
1070
     1
1070
    44
1040
1.0
1070
    74
1070
     0
1000
MTEXTEND
  0
MTEXT
  5
2D3
330
28F
100
AcDbEntity
  8
Symbol (ANSI)
100
AcDbMText
 10
3.894793914156884
 20
2.713002386426962
 30
0.0
 40
0.1200000014830762
 41
0.0
 71
     7
 72
     1
  1
n
  7
Text Style6
 73
     1
 44
1.0
1001
ACAD
1000
MTEXTBEGIN
1070
    73
1070
     1
1070
    44
1040
1.0
1070
    74
1070
     0
1000
MTEXTEND
  0
MTEXT
  5
2D4
330
28F
100
AcDbEntity
  8
Symbol (ANSI)
100
AcDbMText
 10
4.028695971575557
 20
2.740589853852934
 30
0.0
 40
0.1200000014830762
 41
0.0
 71
     7
 72
     1
  1
0.0945 
  7
Text Style29
 73
     1
 44
1.0
1001
ACAD
1000
MTEXTBEGIN
1070
    73
1070
     1
1070
    44
1040
1.0
1070
    74
1070
     0
1000
MTEXTEND
  0
MTEXT
  5
2D5
330
28F
100
AcDbEntity
  8
Symbol (ANSI)
100
AcDbMText
 10
4.587575356419879
 20
2.73501010868146
 30
0.0
 40
0.1200000014830762
 41
0.0
 71
     7
 72
     1
  1
x
  7
Text Style6
 73
     1
 44
1.0
1001
ACAD
1000
MTEXTBEGIN
1070
    73
1070
     1
1070
    44
1040
1.0
1070
    74
1070
     0
1000
MTEXTEND
  0
MTEXT
  5
2D6
330
28F
100
AcDbEntity
  8
Symbol (ANSI)
100
AcDbMText
 10
4.70712104848451
 20
2.740589853852934
 30
0.0
 40
0.1200000014830762
 41
0.0
 71
     7
 72
     1
  1
 0.20**
  7
Text Style29
 73
     1
 44
1.0
1001
ACAD
1000
MTEXTBEGIN
1070
    73
1070
     1
1070
    44
1040
1.0
1070
    74
1070
     0
1000
MTEXTEND
  0
LINE
  5
2D7
330
28F
100
AcDbEntity
  8
Symbol (ANSI)
100
AcDbLine
 10
2.728428111047505
 20
2.923756044190298
 30
0.0
 11
5.93870578457921
 21
2.923756044190298
 31
0.0
  0
LINE
  5
2D8
330
28F
100
AcDbEntity
  8
Symbol (ANSI)
100
AcDbLine
 10
2.728428111047505
 20
2.923756044190298
 30
0.0
 11
2.728428111047505
 21
2.677963016348221
 31
0.0
  0
LINE
  5
2D9
330
28F
100
AcDbEntity
  8
Symbol (ANSI)
100
AcDbLine
 10
5.93870578457921
 20
2.923756044190298
 30
0.0
 11
5.93870578457921
 21
2.677963016348221
 31
0.0
  0
LINE
  5
2DA
330
28F
100
AcDbEntity
  8
Symbol (ANSI)
100
AcDbLine
 10
1.037175350068785
 20
2.677963016348221
 30
0.0
 11
1.547325748842781
 21
2.677963016348221
 31
0.0
  0
LINE
  5
2DB
330
28F
100
AcDbEntity
  8
Symbol (ANSI)
100
AcDbLine
 10
1.547325748842781
 20
2.677963016348221
 30
0.0
 11
1.547325748842781
 21
2.432169988506145
 31
0.0
  0
LINE
  5
2DC
330
28F
100
AcDbEntity
  8
Symbol (ANSI)
100
AcDbLine
 10
1.037175350068785
 20
2.432169988506145
 30
0.0
 11
1.547325748842781
 21
2.432169988506145
 31
0.0
  0
MTEXT
  5
2DD
330
28F
100
AcDbEntity
  8
Symbol (ANSI)
100
AcDbMText
 10
1.253570050696205
 20
2.495066502888756
 30
0.0
 40
0.1200000014830762
 41
0.0
 71
     7
 72
     1
  1
4
  7
Text Style29
 73
     1
 44
1.0
1001
ACAD
1000
MTEXTBEGIN
1070
    73
1070
     1
1070
    44
1040
1.0
1070
    74
1070
     0
1000
MTEXTEND
  0
LINE
  5
2DE
330
28F
100
AcDbEntity
  8
Symbol (ANSI)
100
AcDbLine
 10
1.547325748842781
 20
2.677963016348221
 30
0.0
 11
2.137876929945143
 21
2.677963016348221
 31
0.0
  0
LINE
  5
2DF
330
28F
100
AcDbEntity
  8
Symbol (ANSI)
100
AcDbLine
 10
1.547325748842781
 20
2.677963016348221
 30
0.0
 11
1.547325748842781
 21
2.432169988506145
 31
0.0
  0
LINE
  5
2E0
330
28F
100
AcDbEntity
  8
Symbol (ANSI)
100
AcDbLine
 10
2.137876929945143
 20
2.677963016348221
 30
0.0
 11
2.137876929945143
 21
2.432169988506145
 31
0.0
  0
LINE
  5
2E1
330
28F
100
AcDbEntity
  8
Symbol (ANSI)
100
AcDbLine
 10
1.547325748842781
 20
2.432169988506145
 30
0.0
 11
2.137876929945143
 21
2.432169988506145
 31
0.0
  0
MTEXT
  5
2E2
330
28F
100
AcDbEntity
  8
Symbol (ANSI)
100
AcDbMText
 10
1.605752216295243
 20
2.492586762227119
 30
0.0
 40
0.1200000014830762
 41
0.0
 71
     7
 72
     1
  1
0.1691
  7
Text Style29
 73
     1
 44
1.0
1001
ACAD
1000
MTEXTBEGIN
1070
    73
1070
     1
1070
    44
1040
1.0
1070
    74
1070
     0
1000
MTEXTEND
  0
LINE
  5
2E3
330
28F
100
AcDbEntity
  8
Symbol (ANSI)
100
AcDbLine
 10
2.137876929945143
 20
2.677963016348221
 30
0.0
 11
2.728428111047505
 21
2.677963016348221
 31
0.0
  0
LINE
  5
2E4
330
28F
100
AcDbEntity
  8
Symbol (ANSI)
100
AcDbLine
 10
2.137876929945143
 20
2.677963016348221
 30
0.0
 11
2.137876929945143
 21
2.432169988506145
 31
0.0
  0
LINE
  5
2E5
330
28F
100
AcDbEntity
  8
Symbol (ANSI)
100
AcDbLine
 10
2.728428111047505
 20
2.677963016348221
 30
0.0
 11
2.728428111047505
 21
2.432169988506145
 31
0.0
  0
LINE
  5
2E6
330
28F
100
AcDbEntity
  8
Symbol (ANSI)
100
AcDbLine
 10
2.137876929945143
 20
2.432169988506145
 30
0.0
 11
2.728428111047505
 21
2.432169988506145
 31
0.0
  0
MTEXT
  5
2E7
330
28F
100
AcDbEntity
  8
Symbol (ANSI)
100
AcDbMText
 10
2.167505436740771
 20
2.492586762227119
 30
0.0
 40
0.1200000014830762
 41
0.0
 71
     7
 72
     1
  1
-0.1000
  7
Text Style29
 73
     1
 44
1.0
1001
ACAD
1000
MTEXTBEGIN
1070
    73
1070
     1
1070
    44
1040
1.0
1070
    74
1070
     0
1000
MTEXTEND
  0
LINE
  5
2E8
330
28F
100
AcDbEntity
  8
Symbol (ANSI)
100
AcDbLine
 10
1.037175350068785
 20
2.432169988506145
 30
0.0
 11
1.547325748842781
 21
2.432169988506145
 31
0.0
  0
LINE
  5
2E9
330
28F
100
AcDbEntity
  8
Symbol (ANSI)
100
AcDbLine
 10
1.547325748842781
 20
2.432169988506145
 30
0.0
 11
1.547325748842781
 21
1.859722972402361
 31
0.0
  0
LINE
  5
2EA
330
28F
100
AcDbEntity
  8
Symbol (ANSI)
100
AcDbLine
 10
1.037175350068785
 20
1.859722972402361
 30
0.0
 11
1.547325748842781
 21
1.859722972402361
 31
0.0
  0
MTEXT
  5
2EB
330
28F
100
AcDbEntity
  8
Symbol (ANSI)
100
AcDbMText
 10
1.267026620578095
 20
2.084682299402051
 30
0.0
 40
0.1200000014830762
 41
0.0
 71
     7
 72
     1
  1
5
  7
Text Style29
 73
     1
 44
1.0
1001
ACAD
1000
MTEXTBEGIN
1070
    73
1070
     1
1070
    44
1040
1.0
1070
    74
1070
     0
1000
MTEXTEND
  0
LINE
  5
2EC
330
28F
100
AcDbEntity
  8
Symbol (ANSI)
100
AcDbLine
 10
1.547325748842781
 20
2.432169988506145
 30
0.0
 11
2.137876929945143
 21
2.432169988506145
 31
0.0
  0
LINE
  5
2ED
330
28F
100
AcDbEntity
  8
Symbol (ANSI)
100
AcDbLine
 10
1.547325748842781
 20
2.432169988506145
 30
0.0
 11
1.547325748842781
 21
1.859722972402361
 31
0.0
  0
LINE
  5
2EE
330
28F
100
AcDbEntity
  8
Symbol (ANSI)
100
AcDbLine
 10
2.137876929945143
 20
2.432169988506145
 30
0.0
 11
2.137876929945143
 21
1.859722972402361
 31
0.0
  0
LINE
  5
2EF
330
28F
100
AcDbEntity
  8
Symbol (ANSI)
100
AcDbLine
 10
1.547325748842781
 20
1.859722972402361
 30
0.0
 11
2.137876929945143
 21
1.859722972402361
 31
0.0
  0
MTEXT
  5
2F0
330
28F
100
AcDbEntity
  8
Symbol (ANSI)
100
AcDbMText
 10
1.650776532437168
 20
2.083466740254189
 30
0.0
 40
0.1200000014830762
 41
0.0
 71
     7
 72
     1
  1
0.169
  7
Text Style29
 73
     1
 44
1.0
1001
ACAD
1000
MTEXTBEGIN
1070
    73
1070
     1
1070
    44
1040
1.0
1070
    74
1070
     0
1000
MTEXTEND
  0
LINE
  5
2F1
330
28F
100
AcDbEntity
  8
Symbol (ANSI)
100
AcDbLine
 10
2.137876929945143
 20
2.432169988506145
 30
0.0
 11
2.728428111047505
 21
2.432169988506145
 31
0.0
  0
LINE
  5
2F2
330
28F
100
AcDbEntity
  8
Symbol (ANSI)
100
AcDbLine
 10
2.137876929945143
 20
2.432169988506145
 30
0.0
 11
2.137876929945143
 21
1.859722972402361
 31
0.0
  0
LINE
  5
2F3
330
28F
100
AcDbEntity
  8
Symbol (ANSI)
100
AcDbLine
 10
2.728428111047505
 20
2.432169988506145
 30
0.0
 11
2.728428111047505
 21
1.859722972402361
 31
0.0
  0
LINE
  5
2F4
330
28F
100
AcDbEntity
  8
Symbol (ANSI)
100
AcDbLine
 10
2.137876929945143
 20
1.859722972402361
 30
0.0
 11
2.728428111047505
 21
1.859722972402361
 31
0.0
  0
MTEXT
  5
2F5
330
28F
100
AcDbEntity
  8
Symbol (ANSI)
100
AcDbMText
 10
2.212529752882695
 20
2.083418117888275
 30
0.0
 40
0.1200000014830762
 41
0.0
 71
     7
 72
     1
  1
-0.347
  7
Text Style29
 73
     1
 44
1.0
1001
ACAD
1000
MTEXTBEGIN
1070
    73
1070
     1
1070
    44
1040
1.0
1070
    74
1070
     0
1000
MTEXTEND
  0
MTEXT
  5
2F6
330
28F
100
AcDbEntity
  8
Symbol (ANSI)
100
AcDbMText
 10
3.488866049336885
 20
2.251532161196333
 30
0.0
 40
0.1200000014830762
 41
0.0
 71
     7
 72
     1
  1
DRILL 
  7
Text Style29
 73
     1
 44
1.0
1001
ACAD
1000
MTEXTBEGIN
1070
    73
1070
     1
1070
    44
1040
1.0
1070
    74
1070
     0
1000
MTEXTEND
  0
MTEXT
  5
2F7
330
28F
100
AcDbEntity
  8
Symbol (ANSI)
100
AcDbMText
 10
3.970249633952637
 20
2.221416330742809
 30
0.0
 40
0.1200000014830762
 41
0.0
 71
     7
 72
     1
  1
n
  7
Text Style6
 73
     1
 44
1.0
1001
ACAD
1000
MTEXTBEGIN
1070
    73
1070
     1
1070
    44
1040
1.0
1070
    74
1070
     0
1000
MTEXTEND
  0
MTEXT
  5
2F8
330
28F
100
AcDbEntity
  8
Symbol (ANSI)
100
AcDbMText
 10
4.10415169137131
 20
2.221678028524863
 30
0.0
 40
0.1200000014830762
 41
0.0
 71
     7
 72
     1
  1
0.089 in THRU,
  7
Text Style29
 73
     1
 44
1.0
1001
ACAD
1000
MTEXTBEGIN
1070
    73
1070
     1
1070
    44
1040
1.0
1070
    74
1070
     0
1000
MTEXTEND
  0
MTEXT
  5
2F9
330
28F
100
AcDbEntity
  8
Symbol (ANSI)
100
AcDbMText
 10
2.856577158658772
 20
1.923604041646207
 30
0.0
 40
0.1200000014830762
 41
0.0
 71
     7
 72
     1
  1
v
  7
Text Style6
 73
     1
 44
1.0
1001
ACAD
1000
MTEXTBEGIN
1070
    73
1070
     1
1070
    44
1040
1.0
1070
    74
1070
     0
1000
MTEXTEND
  0
MTEXT
  5
2FA
330
28F
100
AcDbEntity
  8
Symbol (ANSI)
100
AcDbMText
 10
3.099279927202346
 20
1.924878172934625
 30
0.0
 40
0.1200000014830762
 41
0.0
 71
     7
 72
     1
  1
 
  7
Text Style29
 73
     1
 44
1.0
1001
ACAD
1000
MTEXTBEGIN
1070
    73
1070
     1
1070
    44
1040
1.0
1070
    74
1070
     0
1000
MTEXTEND
  0
MTEXT
  5
2FB
330
28F
100
AcDbEntity
  8
Symbol (ANSI)
100
AcDbMText
 10
3.164660678584993
 20
1.894762342481102
 30
0.0
 40
0.1200000014830762
 41
0.0
 71
     7
 72
     1
  1
n
  7
Text Style6
 73
     1
 44
1.0
1001
ACAD
1000
MTEXTBEGIN
1070
    73
1070
     1
1070
    44
1040
1.0
1070
    74
1070
     0
1000
MTEXTEND
  0
MTEXT
  5
2FC
330
28F
100
AcDbEntity
  8
Symbol (ANSI)
100
AcDbMText
 10
3.298562736003666
 20
1.922349809907074
 30
0.0
 40
0.1200000014830762
 41
0.0
 71
     7
 72
     1
  1
0.156 in 
  7
Text Style29
 73
     1
 44
1.0
1001
ACAD
1000
MTEXTBEGIN
1070
    73
1070
     1
1070
    44
1040
1.0
1070
    74
1070
     0
1000
MTEXTEND
  0
MTEXT
  5
2FD
330
28F
100
AcDbEntity
  8
Symbol (ANSI)
100
AcDbMText
 10
3.948657643118491
 20
1.916770064735599
 30
0.0
 40
0.1200000014830762
 41
0.0
 71
     7
 72
     1
  1
x
  7
Text Style6
 73
     1
 44
1.0
1001
ACAD
1000
MTEXTBEGIN
1070
    73
1070
     1
1070
    44
1040
1.0
1070
    74
1070
     0
1000
MTEXTEND
  0
MTEXT
  5
2FE
330
28F
100
AcDbEntity
  8
Symbol (ANSI)
100
AcDbMText
 10
4.068203335183122
 20
1.922349809907074
 30
0.0
 40
0.1200000014830762
 41
0.0
 71
     7
 72
     1
  1
 0.29  FROM BACK SIDE
  7
Text Style29
 73
     1
 44
1.0
1001
ACAD
1000
MTEXTBEGIN
1070
    73
1070
     1
1070
    44
1040
1.0
1070
    74
1070
     0
1000
MTEXTEND
  0
LINE
  5
2FF
330
28F
100
AcDbEntity
  8
Symbol (ANSI)
100
AcDbLine
 10
2.728428111047505
 20
2.432169988506145
 30
0.0
 11
5.93870578457921
 21
2.432169988506145
 31
0.0
  0
LINE
  5
300
330
28F
100
AcDbEntity
  8
Symbol (ANSI)
100
AcDbLine
 10
2.728428111047505
 20
2.432169988506145
 30
0.0
 11
2.728428111047505
 21
1.859722972402361
 31
0.0
  0
LINE
  5
301
330
28F
100
AcDbEntity
  8
Symbol (ANSI)
100
AcDbLine
 10
5.93870578457921
 20
2.432169988506145
 30
0.0
 11
5.93870578457921
 21
1.859722972402361
 31
0.0
  0
LINE
  5
302
330
28F
100
AcDbEntity
  8
Symbol (ANSI)
100
AcDbLine
 10
1.037175350068785
 20
1.859722972402361
 30
0.0
 11
1.547325748842781
 21
1.859722972402361
 31
0.0
  0
LINE
  5
303
330
28F
100
AcDbEntity
  8
Symbol (ANSI)
100
AcDbLine
 10
1.547325748842781
 20
1.859722972402361
 30
0.0
 11
1.547325748842781
 21
1.287275956298577
 31
0.0
  0
MTEXT
  5
304
330
28F
100
AcDbEntity
  8
Symbol (ANSI)
100
AcDbMText
 10
1.260682809062347
 20
1.511116968882235
 30
0.0
 40
0.1200000014830762
 41
0.0
 71
     7
 72
     1
  1
6
  7
Text Style29
 73
     1
 44
1.0
1001
ACAD
1000
MTEXTBEGIN
1070
    73
1070
     1
1070
    44
1040
1.0
1070
    74
1070
     0
1000
MTEXTEND
  0
LINE
  5
305
330
28F
100
AcDbEntity
  8
Symbol (ANSI)
100
AcDbLine
 10
1.547325748842781
 20
1.859722972402361
 30
0.0
 11
2.137876929945143
 21
1.859722972402361
 31
0.0
  0
LINE
  5
306
330
28F
100
AcDbEntity
  8
Symbol (ANSI)
100
AcDbLine
 10
1.547325748842781
 20
1.859722972402361
 30
0.0
 11
1.547325748842781
 21
1.287275956298577
 31
0.0
  0
LINE
  5
307
330
28F
100
AcDbEntity
  8
Symbol (ANSI)
100
AcDbLine
 10
2.137876929945143
 20
1.859722972402361
 30
0.0
 11
2.137876929945143
 21
1.287275956298577
 31
0.0
  0
MTEXT
  5
308
330
28F
100
AcDbEntity
  8
Symbol (ANSI)
100
AcDbMText
 10
1.650776532437168
 20
1.511019724150405
 30
0.0
 40
0.1200000014830762
 41
0.0
 71
     7
 72
     1
  1
0.715
  7
Text Style29
 73
     1
 44
1.0
1001
ACAD
1000
MTEXTBEGIN
1070
    73
1070
     1
1070
    44
1040
1.0
1070
    74
1070
     0
1000
MTEXTEND
  0
LINE
  5
309
330
28F
100
AcDbEntity
  8
Symbol (ANSI)
100
AcDbLine
 10
2.137876929945143
 20
1.859722972402361
 30
0.0
 11
2.728428111047505
 21
1.859722972402361
 31
0.0
  0
LINE
  5
30A
330
28F
100
AcDbEntity
  8
Symbol (ANSI)
100
AcDbLine
 10
2.137876929945143
 20
1.859722972402361
 30
0.0
 11
2.137876929945143
 21
1.287275956298577
 31
0.0
  0
LINE
  5
30B
330
28F
100
AcDbEntity
  8
Symbol (ANSI)
100
AcDbLine
 10
2.728428111047505
 20
1.859722972402361
 30
0.0
 11
2.728428111047505
 21
1.287275956298577
 31
0.0
  0
MTEXT
  5
30C
330
28F
100
AcDbEntity
  8
Symbol (ANSI)
100
AcDbMText
 10
2.212529752882695
 20
1.510971101784491
 30
0.0
 40
0.1200000014830762
 41
0.0
 71
     7
 72
     1
  1
-0.347
  7
Text Style29
 73
     1
 44
1.0
1001
ACAD
1000
MTEXTBEGIN
1070
    73
1070
     1
1070
    44
1040
1.0
1070
    74
1070
     0
1000
MTEXTEND
  0
LINE
  5
30D
330
28F
100
AcDbEntity
  8
Symbol (ANSI)
100
AcDbLine
 10
2.728428111047505
 20
1.859722972402361
 30
0.0
 11
5.93870578457921
 21
1.859722972402361
 31
0.0
  0
LINE
  5
30E
330
28F
100
AcDbEntity
  8
Symbol (ANSI)
100
AcDbLine
 10
2.728428111047505
 20
1.859722972402361
 30
0.0
 11
2.728428111047505
 21
1.287275956298577
 31
0.0
  0
MTEXT
  5
30F
330
28F
100
AcDbEntity
  8
Symbol (ANSI)
100
AcDbMText
 10
3.488866049336885
 20
1.679085145092548
 30
0.0
 40
0.1200000014830762
 41
0.0
 71
     7
 72
     1
  1
DRILL 
  7
Text Style29
 73
     1
 44
1.0
1001
ACAD
1000
MTEXTBEGIN
1070
    73
1070
     1
1070
    44
1040
1.0
1070
    74
1070
     0
1000
MTEXTEND
  0
MTEXT
  5
310
330
28F
100
AcDbEntity
  8
Symbol (ANSI)
100
AcDbMText
 10
3.970249633952637
 20
1.648969314639025
 30
0.0
 40
0.1200000014830762
 41
0.0
 71
     7
 72
     1
  1
n
  7
Text Style6
 73
     1
 44
1.0
1001
ACAD
1000
MTEXTBEGIN
1070
    73
1070
     1
1070
    44
1040
1.0
1070
    74
1070
     0
1000
MTEXTEND
  0
MTEXT
  5
311
330
28F
100
AcDbEntity
  8
Symbol (ANSI)
100
AcDbMText
 10
4.10415169137131
 20
1.649231012421078
 30
0.0
 40
0.1200000014830762
 41
0.0
 71
     7
 72
     1
  1
0.089 in THRU,
  7
Text Style29
 73
     1
 44
1.0
1001
ACAD
1000
MTEXTBEGIN
1070
    73
1070
     1
1070
    44
1040
1.0
1070
    74
1070
     0
1000
MTEXTEND
  0
MTEXT
  5
312
330
28F
100
AcDbEntity
  8
Symbol (ANSI)
100
AcDbMText
 10
2.856577158658772
 20
1.351157025542422
 30
0.0
 40
0.1200000014830762
 41
0.0
 71
     7
 72
     1
  1
v
  7
Text Style6
 73
     1
 44
1.0
1001
ACAD
1000
MTEXTBEGIN
1070
    73
1070
     1
1070
    44
1040
1.0
1070
    74
1070
     0
1000
MTEXTEND
  0
MTEXT
  5
313
330
28F
100
AcDbEntity
  8
Symbol (ANSI)
100
AcDbMText
 10
3.099279927202346
 20
1.352431156830841
 30
0.0
 40
0.1200000014830762
 41
0.0
 71
     7
 72
     1
  1
 
  7
Text Style29
 73
     1
 44
1.0
1001
ACAD
1000
MTEXTBEGIN
1070
    73
1070
     1
1070
    44
1040
1.0
1070
    74
1070
     0
1000
MTEXTEND
  0
MTEXT
  5
314
330
28F
100
AcDbEntity
  8
Symbol (ANSI)
100
AcDbMText
 10
3.164660678584993
 20
1.322315326377317
 30
0.0
 40
0.1200000014830762
 41
0.0
 71
     7
 72
     1
  1
n
  7
Text Style6
 73
     1
 44
1.0
1001
ACAD
1000
MTEXTBEGIN
1070
    73
1070
     1
1070
    44
1040
1.0
1070
    74
1070
     0
1000
MTEXTEND
  0
MTEXT
  5
315
330
28F
100
AcDbEntity
  8
Symbol (ANSI)
100
AcDbMText
 10
3.298562736003666
 20
1.349902793803289
 30
0.0
 40
0.1200000014830762
 41
0.0
 71
     7
 72
     1
  1
0.156 in 
  7
Text Style29
 73
     1
 44
2.504880189895629
1001
ACAD
1000
MTEXTBEGIN
1070
    73
1070
     1
1070
    44
1040
2.504880189895629
1070
    74
1070
     0
1000
MTEXTEND
  0
MTEXT
  5
316
330
28F
100
AcDbEntity
  8
Symbol (ANSI)
100
AcDbMText
 10
3.948657643118491
 20
1.344323048631815
 30
0.0
 40
0.1200000014830762
 41
0.0
 71
     7
 72
     1
  1
x
  7
Text Style6
 73
     1
 44
1.0
1001
ACAD
1000
MTEXTBEGIN
1070
    73
1070
     1
1070
    44
1040
1.0
1070
    74
1070
     0
1000
MTEXTEND
  0
MTEXT
  5
317
330
28F
100
AcDbEntity
  8
Symbol (ANSI)
100
AcDbMText
 10
4.068203335183122
 20
1.349708304339632
 30
0.0
 40
0.1200000014830762
 41
0.0
 71
     7
 72
     1
  1
 0.18  FROM BACK SIDE
  7
Text Style29
 73
     1
 44
1.0
1001
ACAD
1000
MTEXTBEGIN
1070
    73
1070
     1
1070
    44
1040
1.0
1070
    74
1070
     0
1000
MTEXTEND
  0
LINE
  5
318
330
28F
100
AcDbEntity
  8
Symbol (ANSI)
100
AcDbLine
 10
2.728428111047505
 20
1.859722972402361
 30
0.0
 11
5.93870578457921
 21
1.859722972402361
 31
0.0
  0
LINE
  5
319
330
28F
100
AcDbEntity
  8
Symbol (ANSI)
100
AcDbLine
 10
2.728428111047505
 20
1.859722972402361
 30
0.0
 11
2.728428111047505
 21
1.287275956298577
 31
0.0
  0
LINE
  5
31A
330
28F
100
AcDbEntity
  8
Symbol (ANSI)
100
AcDbLine
 10
5.93870578457921
 20
1.859722972402361
 30
0.0
 11
5.93870578457921
 21
1.287275956298577
 31
0.0
  0
LINE
  5
31B
330
28F
100
AcDbEntity
  8
Symbol (ANSI)
100
AcDbLine
 10
1.037175350068785
 20
1.287275956298578
 30
0.0
 11
1.037175350068785
 21
3.795499583155565
 31
0.0
  0
LINE
  5
31C
330
28F
100
AcDbEntity
  8
Symbol (ANSI)
100
AcDbLine
 10
1.037175350068785
 20
3.795499583155565
 30
0.0
 11
5.93870578457921
 21
3.795499583155565
 31
0.0
  0
LINE
  5
31D
330
28F
100
AcDbEntity
  8
Symbol (ANSI)
100
AcDbLine
 10
5.93870578457921
 20
3.795499583155565
 30
0.0
 11
5.93870578457921
 21
1.287275956298578
 31
0.0
  0
LINE
  5
31E
330
28F
100
AcDbEntity
  8
Symbol (ANSI)
100
AcDbLine
 10
5.93870578457921
 20
1.287275956298578
 30
0.0
 11
1.037175350068785
 21
1.287275956298578
 31
0.0
  0
ENDBLK
  5
291
330
28F
100
AcDbEntity
  8
0
100
AcDbBlockEnd
  0
BLOCK
  5
321
330
320
100
AcDbEntity
  8
0
100
AcDbBlockBegin
  2
Leader Text7
 70
     0
 10
0.0
 20
0.0
 30
0.0
  3
Leader Text7
  1

  0
LINE
  5
323
330
320
100
AcDbEntity
  8
Symbol (ANSI)
100
AcDbLine
 10
9.376385503540793
 20
2.539761359756172
 30
0.0
 11
9.317491992638936
 21
2.460900255600249
 31
0.0
  0
POLYLINE
  5
324
330
320
100
AcDbEntity
  8
Symbol (ANSI)
100
AcDb2dPolyline
 66
     1
 10
0.0
 20
0.0
 30
0.0
 70
   128
  0
VERTEX
  5
325
330
324
100
AcDbEntity
  8
Symbol (ANSI)
100
AcDbVertex
100
AcDb2dVertex
 10
9.360613034466119
 20
2.551540051858256
 30
0.0
  0
VERTEX
  5
326
330
324
100
AcDbEntity
  8
Symbol (ANSI)
100
AcDbVertex
100
AcDb2dVertex
 10
9.317491936871384
 20
2.460900254136933
 30
0.0
  0
VERTEX
  5
328
330
324
100
AcDbEntity
  8
Symbol (ANSI)
100
AcDbVertex
100
AcDb2dVertex
 10
9.392157877524066
 20
2.527982606662539
 30
0.0
  0
VERTEX
  5
329
330
324
100
AcDbEntity
  8
Symbol (ANSI)
100
AcDbVertex
100
AcDb2dVertex
 10
9.360613034466119
 20
2.551540051858256
 30
0.0
  0
SEQEND
  5
327
330
324
100
AcDbEntity
  8
Symbol (ANSI)
  0
SOLID
  5
32A
330
320
100
AcDbEntity
  8
Symbol (ANSI)
100
AcDbTrace
 10
9.360613034466119
 20
2.551540051858256
 30
0.0
 11
9.317491936871384
 21
2.460900254136933
 31
0.0
 12
9.392157877524066
 22
2.527982606662539
 32
0.0
 13
9.360613034466119
 23
2.551540051858256
 33
0.0
  0
LINE
  5
32B
330
320
100
AcDbEntity
  8
Symbol (ANSI)
100
AcDbLine
 10
9.360613282709609
 20
2.551540061936544
 30
0.0
 11
9.317491992638936
 21
2.460900255600249
 31
0.0
  0
LINE
  5
32C
330
320
100
AcDbEntity
  8
Symbol (ANSI)
100
AcDbLine
 10
9.317491992638936
 20
2.460900255600249
 30
0.0
 11
9.39215772437198
 21
2.5279826575758
 31
0.0
  0
LINE
  5
32D
330
320
100
AcDbEntity
  8
Symbol (ANSI)
100
AcDbLine
 10
9.39215772437198
 20
2.5279826575758
 30
0.0
 11
9.360613282709609
 21
2.551540061936544
 31
0.0
  0
LINE
  5
32E
330
320
100
AcDbEntity
  8
Symbol (ANSI)
100
AcDbLine
 10
9.376385503540793
 20
2.539761359756172
 30
0.0
 11
9.514810299037536
 21
2.725118490758636
 31
0.0
  0
LINE
  5
32F
330
320
100
AcDbEntity
  8
Symbol (ANSI)
100
AcDbLine
 10
9.514810299037536
 20
2.725118490758636
 30
0.0
 11
9.613235495887931
 21
2.725118490758636
 31
0.0
  0
MTEXT
  5
330
330
320
100
AcDbEntity
  8
Symbol (ANSI)
100
AcDbMText
 10
9.628614432895805
 20
2.662590128192657
 30
0.0
 40
0.1200000014830762
 41
0.0
 71
     7
 72
     1
  1
3
  7
Text Style29
 73
     1
 44
1.0
1001
ACAD
1000
MTEXTBEGIN
1070
    73
1070
     1
1070
    44
1040
1.0
1070
    74
1070
     0
1000
MTEXTEND
  0
ENDBLK
  5
322
330
320
100
AcDbEntity
  8
0
100
AcDbBlockEnd
  0
BLOCK
  5
333
330
332
100
AcDbEntity
  8
0
100
AcDbBlockBegin
  2
Leader Text8
 70
     0
 10
0.0
 20
0.0
 30
0.0
  3
Leader Text8
  1

  0
LINE
  5
335
330
332
100
AcDbEntity
  8
Symbol (ANSI)
100
AcDbLine
 10
7.699417018736677
 20
3.171069857033946
 30
0.0
 11
7.65872523589874
 21
3.081450114875709
 31
0.0
  0
POLYLINE
  5
336
330
332
100
AcDbEntity
  8
Symbol (ANSI)
100
AcDb2dPolyline
 66
     1
 10
0.0
 20
0.0
 30
0.0
 70
   128
  0
VERTEX
  5
337
330
336
100
AcDbEntity
  8
Symbol (ANSI)
100
AcDbVertex
100
AcDb2dVertex
 10
7.681492933138148
 20
3.17920812471645
 30
0.0
  0
VERTEX
  5
338
330
336
100
AcDbEntity
  8
Symbol (ANSI)
100
AcDbVertex
100
AcDb2dVertex
 10
7.658724897489772
 20
3.081450124425212
 30
0.0
  0
VERTEX
  5
33A
330
336
100
AcDbEntity
  8
Symbol (ANSI)
100
AcDbVertex
100
AcDb2dVertex
 10
7.717341325414461
 20
3.162931457279235
 30
0.0
  0
VERTEX
  5
33B
330
336
100
AcDbEntity
  8
Symbol (ANSI)
100
AcDbVertex
100
AcDb2dVertex
 10
7.681492933138148
 20
3.17920812471645
 30
0.0
  0
SEQEND
  5
339
330
336
100
AcDbEntity
  8
Symbol (ANSI)
  0
SOLID
  5
33C
330
332
100
AcDbEntity
  8
Symbol (ANSI)
100
AcDbTrace
 10
7.681492933138148
 20
3.17920812471645
 30
0.0
 11
7.658724897489772
 21
3.081450124425212
 31
0.0
 12
7.717341325414461
 22
3.162931457279235
 32
0.0
 13
7.681492933138148
 23
3.17920812471645
 33
0.0
  0
LINE
  5
33D
330
332
100
AcDbEntity
  8
Symbol (ANSI)
100
AcDbLine
 10
7.681493070305029
 20
3.179208213601533
 30
0.0
 11
7.65872523589874
 21
3.081450114875709
 31
0.0
  0
LINE
  5
33E
330
332
100
AcDbEntity
  8
Symbol (ANSI)
100
AcDbLine
 10
7.65872523589874
 20
3.081450114875709
 30
0.0
 11
7.717340967168325
 21
3.162931500466358
 31
0.0
  0
LINE
  5
33F
330
332
100
AcDbEntity
  8
Symbol (ANSI)
100
AcDbLine
 10
7.717340967168325
 20
3.162931500466358
 30
0.0
 11
7.681493070305029
 21
3.179208213601533
 31
0.0
  0
LINE
  5
340
330
332
100
AcDbEntity
  8
Symbol (ANSI)
100
AcDbLine
 10
7.699417018736677
 20
3.171069857033946
 30
0.0
 11
7.893957269944029
 21
3.599526069484452
 31
0.0
  0
LINE
  5
341
330
332
100
AcDbEntity
  8
Symbol (ANSI)
100
AcDbLine
 10
7.893957269944029
 20
3.599526069484452
 30
0.0
 11
7.992382466794422
 21
3.599526069484452
 31
0.0
  0
MTEXT
  5
342
330
332
100
AcDbEntity
  8
Symbol (ANSI)
100
AcDbMText
 10
7.99872627831017
 20
3.539526069946025
 30
0.0
 40
0.1200000014830762
 41
0.0
 71
     7
 72
     1
  1
4
  7
Text Style29
 73
     1
 44
1.0
1001
ACAD
1000
MTEXTBEGIN
1070
    73
1070
     1
1070
    44
1040
1.0
1070
    74
1070
     0
1000
MTEXTEND
  0
ENDBLK
  5
334
330
332
100
AcDbEntity
  8
0
100
AcDbBlockEnd
  0
BLOCK
  5
345
330
344
100
AcDbEntity
  8
0
100
AcDbBlockBegin
  2
Leader Text9
 70
     0
 10
0.0
 20
0.0
 30
0.0
  3
Leader Text9
  1

  0
LINE
  5
347
330
344
100
AcDbEntity
  8
Symbol (ANSI)
100
AcDbLine
 10
9.860302135184667
 20
2.181724299105058
 30
0.0
 11
9.826347020728052
 21
2.08934156491042
 31
0.0
  0
POLYLINE
  5
348
330
344
100
AcDbEntity
  8
Symbol (ANSI)
100
AcDb2dPolyline
 66
     1
 10
0.0
 20
0.0
 30
0.0
 70
   128
  0
VERTEX
  5
349
330
348
100
AcDbEntity
  8
Symbol (ANSI)
100
AcDbVertex
100
AcDb2dVertex
 10
9.841825830654833
 20
2.188515287684642
 30
0.0
  0
VERTEX
  5
34A
330
348
100
AcDbEntity
  8
Symbol (ANSI)
100
AcDbVertex
100
AcDb2dVertex
 10
9.826347020667368
 20
2.089341606680802
 30
0.0
  0
VERTEX
  5
34C
330
348
100
AcDbEntity
  8
Symbol (ANSI)
100
AcDbVertex
100
AcDb2dVertex
 10
9.878778833103929
 20
2.174933313384769
 30
0.0
  0
VERTEX
  5
34D
330
348
100
AcDbEntity
  8
Symbol (ANSI)
100
AcDbVertex
100
AcDb2dVertex
 10
9.841825830654833
 20
2.188515287684642
 30
0.0
  0
SEQEND
  5
34B
330
348
100
AcDbEntity
  8
Symbol (ANSI)
  0
SOLID
  5
34E
330
344
100
AcDbEntity
  8
Symbol (ANSI)
100
AcDbTrace
 10
9.841825830654833
 20
2.188515287684642
 30
0.0
 11
9.826347020667368
 21
2.089341606680802
 31
0.0
 12
9.878778833103929
 22
2.174933313384769
 32
0.0
 13
9.841825830654833
 23
2.188515287684642
 33
0.0
  0
LINE
  5
34F
330
344
100
AcDbEntity
  8
Symbol (ANSI)
100
AcDbLine
 10
9.84182558834574
 20
2.18851532199638
 30
0.0
 11
9.826347020728052
 21
2.08934156491042
 31
0.0
  0
LINE
  5
350
330
344
100
AcDbEntity
  8
Symbol (ANSI)
100
AcDbLine
 10
9.826347020728052
 20
2.08934156491042
 30
0.0
 11
9.878778682023595
 21
2.174933276213734
 31
0.0
  0
LINE
  5
351
330
344
100
AcDbEntity
  8
Symbol (ANSI)
100
AcDbLine
 10
9.878778682023595
 20
2.174933276213734
 30
0.0
 11
9.84182558834574
 21
2.18851532199638
 31
0.0
  0
LINE
  5
352
330
344
100
AcDbEntity
  8
Symbol (ANSI)
100
AcDbLine
 10
9.860302135184667
 20
2.181724299105058
 30
0.0
 11
9.930687063081267
 21
2.373222757856782
 31
0.0
  0
LINE
  5
353
330
344
100
AcDbEntity
  8
Symbol (ANSI)
100
AcDbLine
 10
9.930687063081267
 20
2.373222757856782
 30
0.0
 11
10.02911225993166
 21
2.373222757856782
 31
0.0
  0
MTEXT
  5
354
330
344
100
AcDbEntity
  8
Symbol (ANSI)
100
AcDbMText
 10
10.04256882981355
 20
2.310840262388548
 30
0.0
 40
0.1200000014830762
 41
0.0
 71
     7
 72
     1
  1
6
  7
Text Style29
 73
     1
 44
1.0
1001
ACAD
1000
MTEXTBEGIN
1070
    73
1070
     1
1070
    44
1040
1.0
1070
    74
1070
     0
1000
MTEXTEND
  0
ENDBLK
  5
346
330
344
100
AcDbEntity
  8
0
100
AcDbBlockEnd
  0
BLOCK
  5
357
330
356
100
AcDbEntity
  8
0
100
AcDbBlockBegin
  2
Leader Text10
 70
     0
 10
0.0
 20
0.0
 30
0.0
  3
Leader Text10
  1

  0
LINE
  5
359
330
356
100
AcDbEntity
  8
Symbol (ANSI)
100
AcDbLine
 10
7.743129695649402
 20
2.146155526380356
 30
0.0
 11
7.685401308652254
 21
2.066437569120112
 31
0.0
  0
POLYLINE
  5
35A
330
356
100
AcDbEntity
  8
Symbol (ANSI)
100
AcDb2dPolyline
 66
     1
 10
0.0
 20
0.0
 30
0.0
 70
   128
  0
VERTEX
  5
35B
330
35A
100
AcDbEntity
  8
Symbol (ANSI)
100
AcDbVertex
100
AcDb2dVertex
 10
7.727185947688544
 20
2.157701282050665
 30
0.0
  0
VERTEX
  5
35C
330
35A
100
AcDbEntity
  8
Symbol (ANSI)
100
AcDbVertex
100
AcDb2dVertex
 10
7.685401495986097
 20
2.066437653669221
 30
0.0
  0
VERTEX
  5
35E
330
35A
100
AcDbEntity
  8
Symbol (ANSI)
100
AcDbVertex
100
AcDb2dVertex
 10
7.759073212390808
 20
2.134609785605602
 30
0.0
  0
VERTEX
  5
35F
330
35A
100
AcDbEntity
  8
Symbol (ANSI)
100
AcDbVertex
100
AcDb2dVertex
 10
7.727185947688544
 20
2.157701282050665
 30
0.0
  0
SEQEND
  5
35D
330
35A
100
AcDbEntity
  8
Symbol (ANSI)
  0
SOLID
  5
360
330
356
100
AcDbEntity
  8
Symbol (ANSI)
100
AcDbTrace
 10
7.727185947688544
 20
2.157701282050665
 30
0.0
 11
7.685401495986097
 21
2.066437653669221
 31
0.0
 12
7.759073212390808
 22
2.134609785605602
 32
0.0
 13
7.727185947688544
 23
2.157701282050665
 33
0.0
  0
LINE
  5
361
330
356
100
AcDbEntity
  8
Symbol (ANSI)
100
AcDbLine
 10
7.727186104197354
 20
2.157701203779786
 30
0.0
 11
7.685401308652254
 21
2.066437569120112
 31
0.0
  0
LINE
  5
362
330
356
100
AcDbEntity
  8
Symbol (ANSI)
100
AcDbLine
 10
7.685401308652254
 20
2.066437569120112
 30
0.0
 11
7.759073287101451
 21
2.134609848980927
 31
0.0
  0
LINE
  5
363
330
356
100
AcDbEntity
  8
Symbol (ANSI)
100
AcDbLine
 10
7.759073287101451
 20
2.134609848980927
 30
0.0
 11
7.727186104197354
 21
2.157701203779786
 31
0.0
  0
LINE
  5
364
330
356
100
AcDbEntity
  8
Symbol (ANSI)
100
AcDbLine
 10
7.743129695649402
 20
2.146155526380356
 30
0.0
 11
7.915284283484735
 21
2.383886264914415
 31
0.0
  0
LINE
  5
365
330
356
100
AcDbEntity
  8
Symbol (ANSI)
100
AcDbLine
 10
7.915284283484735
 20
2.383886264914415
 30
0.0
 11
8.013709480335128
 21
2.383886264914415
 31
0.0
  0
MTEXT
  5
366
330
356
100
AcDbEntity
  8
Symbol (ANSI)
100
AcDbMText
 10
8.033509861732765
 20
2.322622083862213
 30
0.0
 40
0.1200000014830762
 41
0.0
 71
     7
 72
     1
  1
5
  7
Text Style29
 73
     1
 44
1.0
1001
ACAD
1000
MTEXTBEGIN
1070
    73
1070
     1
1070
    44
1040
1.0
1070
    74
1070
     0
1000
MTEXTEND
  0
ENDBLK
  5
358
330
356
100
AcDbEntity
  8
0
100
AcDbBlockEnd
  0
BLOCK
  5
369
330
368
100
AcDbEntity
  8
0
100
AcDbBlockBegin
  2
Leader Text11
 70
     0
 10
0.0
 20
0.0
 30
0.0
  3
Leader Text11
  1

  0
LINE
  5
36B
330
368
100
AcDbEntity
  8
Symbol (ANSI)
100
AcDbLine
 10
9.311428672293214
 20
3.15118477593363
 30
0.0
 11
9.260707926495562
 21
3.06683475921301
 31
0.0
  0
POLYLINE
  5
36C
330
368
100
AcDbEntity
  8
Symbol (ANSI)
100
AcDb2dPolyline
 66
     1
 10
0.0
 20
0.0
 30
0.0
 70
   128
  0
VERTEX
  5
36D
330
36C
100
AcDbEntity
  8
Symbol (ANSI)
100
AcDbVertex
100
AcDb2dVertex
 10
9.29455869779812
 20
3.161328984057809
 30
0.0
  0
VERTEX
  5
36E
330
36C
100
AcDbEntity
  8
Symbol (ANSI)
100
AcDbVertex
100
AcDb2dVertex
 10
9.260707765113648
 20
3.066834690063956
 30
0.0
  0
VERTEX
  5
370
330
36C
100
AcDbEntity
  8
Symbol (ANSI)
100
AcDbVertex
100
AcDb2dVertex
 10
9.328298493633118
 20
3.141040689363253
 30
0.0
  0
VERTEX
  5
371
330
36C
100
AcDbEntity
  8
Symbol (ANSI)
100
AcDbVertex
100
AcDb2dVertex
 10
9.29455869779812
 20
3.161328984057809
 30
0.0
  0
SEQEND
  5
36F
330
36C
100
AcDbEntity
  8
Symbol (ANSI)
  0
SOLID
  5
372
330
368
100
AcDbEntity
  8
Symbol (ANSI)
100
AcDbTrace
 10
9.29455869779812
 20
3.161328984057809
 30
0.0
 11
9.260707765113648
 21
3.066834690063956
 31
0.0
 12
9.328298493633118
 22
3.141040689363253
 32
0.0
 13
9.29455869779812
 23
3.161328984057809
 33
0.0
  0
LINE
  5
373
330
368
100
AcDbEntity
  8
Symbol (ANSI)
100
AcDbLine
 10
9.29455866894909
 20
3.16132892509316
 30
0.0
 11
9.260707926495562
 21
3.06683475921301
 31
0.0
  0
LINE
  5
374
330
368
100
AcDbEntity
  8
Symbol (ANSI)
100
AcDbLine
 10
9.260707926495562
 20
3.06683475921301
 30
0.0
 11
9.328298675637338
 21
3.1410406267741
 31
0.0
  0
LINE
  5
375
330
368
100
AcDbEntity
  8
Symbol (ANSI)
100
AcDbLine
 10
9.328298675637338
 20
3.1410406267741
 30
0.0
 11
9.29455866894909
 21
3.16132892509316
 31
0.0
  0
LINE
  5
376
330
368
100
AcDbEntity
  8
Symbol (ANSI)
100
AcDbLine
 10
9.311428672293214
 20
3.15118477593363
 30
0.0
 11
9.53613731257824
 21
3.524881520081028
 31
0.0
  0
LINE
  5
377
330
368
100
AcDbEntity
  8
Symbol (ANSI)
100
AcDbLine
 10
9.53613731257824
 20
3.524881520081028
 30
0.0
 11
9.634562509428635
 21
3.524881520081028
 31
0.0
  0
MTEXT
  5
378
330
368
100
AcDbEntity
  8
Symbol (ANSI)
100
AcDbMText
 10
9.651863813562492
 20
3.463617339028826
 30
0.0
 40
0.1200000014830762
 41
0.0
 71
     7
 72
     1
  1
2
  7
Text Style29
 73
     1
 44
1.0
1001
ACAD
1000
MTEXTBEGIN
1070
    73
1070
     1
1070
    44
1040
1.0
1070
    74
1070
     0
1000
MTEXTEND
  0
ENDBLK
  5
36A
330
368
100
AcDbEntity
  8
0
100
AcDbBlockEnd
  0
BLOCK
  5
37B
330
37A
100
AcDbEntity
  8
0
100
AcDbBlockBegin
  2
Leader Text12
 70
     0
 10
0.0
 20
0.0
 30
0.0
  3
Leader Text12
  1

  0
LINE
  5
37D
330
37A
100
AcDbEntity
  8
Symbol (ANSI)
100
AcDbLine
 10
8.515926348094914
 20
3.153279315195365
 30
0.0
 11
8.466467042862445
 21
3.068183507419891
 31
0.0
  0
POLYLINE
  5
37E
330
37A
100
AcDbEntity
  8
Symbol (ANSI)
100
AcDb2dPolyline
 66
     1
 10
0.0
 20
0.0
 30
0.0
 70
   128
  0
VERTEX
  5
37F
330
37E
100
AcDbEntity
  8
Symbol (ANSI)
100
AcDbVertex
100
AcDb2dVertex
 10
8.498907464695726
 20
3.163171002245324
 30
0.0
  0
VERTEX
  5
380
330
37E
100
AcDbEntity
  8
Symbol (ANSI)
100
AcDbVertex
100
AcDb2dVertex
 10
8.466466768520083
 20
3.068183538481944
 30
0.0
  0
VERTEX
  5
382
330
37E
100
AcDbEntity
  8
Symbol (ANSI)
100
AcDbVertex
100
AcDb2dVertex
 10
8.532945377620185
 20
3.143387516652504
 30
0.0
  0
VERTEX
  5
383
330
37E
100
AcDbEntity
  8
Symbol (ANSI)
100
AcDbVertex
100
AcDb2dVertex
 10
8.498907464695726
 20
3.163171002245324
 30
0.0
  0
SEQEND
  5
381
330
37E
100
AcDbEntity
  8
Symbol (ANSI)
  0
SOLID
  5
384
330
37A
100
AcDbEntity
  8
Symbol (ANSI)
100
AcDbTrace
 10
8.498907464695726
 20
3.163171002245324
 30
0.0
 11
8.466466768520083
 21
3.068183538481944
 31
0.0
 12
8.532945377620185
 22
3.143387516652504
 32
0.0
 13
8.498907464695726
 23
3.163171002245324
 33
0.0
  0
LINE
  5
385
330
37A
100
AcDbEntity
  8
Symbol (ANSI)
100
AcDbLine
 10
8.498907186539819
 20
3.163171176241859
 30
0.0
 11
8.466467042862445
 21
3.068183507419891
 31
0.0
  0
LINE
  5
386
330
37A
100
AcDbEntity
  8
Symbol (ANSI)
100
AcDbLine
 10
8.466467042862445
 20
3.068183507419891
 30
0.0
 11
8.532945509650009
 21
3.143387454148871
 31
0.0
  0
LINE
  5
387
330
37A
100
AcDbEntity
  8
Symbol (ANSI)
100
AcDbLine
 10
8.532945509650009
 20
3.143387454148871
 30
0.0
 11
8.498907186539819
 21
3.163171176241859
 31
0.0
  0
LINE
  5
388
330
37A
100
AcDbEntity
  8
Symbol (ANSI)
100
AcDbLine
 10
8.515926348094914
 20
3.153279315195365
 30
0.0
 11
8.725710798031489
 21
3.514218013023397
 31
0.0
  0
LINE
  5
389
330
37A
100
AcDbEntity
  8
Symbol (ANSI)
100
AcDbLine
 10
8.725710798031489
 20
3.514218013023397
 30
0.0
 11
8.824135994881881
 21
3.514218013023397
 31
0.0
  0
MTEXT
  5
38A
330
37A
100
AcDbEntity
  8
Symbol (ANSI)
100
AcDbMText
 10
8.860084260137787
 20
3.454023524021311
 30
0.0
 40
0.1200000014830762
 41
0.0
 71
     7
 72
     1
  1
1
  7
Text Style29
 73
     1
 44
1.0
1001
ACAD
1000
MTEXTBEGIN
1070
    73
1070
     1
1070
    44
1040
1.0
1070
    74
1070
     0
1000
MTEXTEND
  0
ENDBLK
  5
37C
330
37A
100
AcDbEntity
  8
0
100
AcDbBlockEnd
  0
ENDSEC
  0
SECTION
  2
ENTITIES
  0
INSERT
  5
FE
330
37
100
AcDbEntity
  8
0
100
AcDbBlockReference
  2
Borders Default Border
 10
0.0
 20
0.0
 30
0.0
 41
0.25
 42
0.25
 43
0.25
  0
CIRCLE
  5
FF
330
37
100
AcDbEntity
  8
Visible (ANSI)
100
AcDbCircle
 10
1.992648633704331
 20
1.667574980891498
 30
0.0
 40
0.0445
  0
CIRCLE
  5
100
330
37
100
AcDbEntity
  8
Visible (ANSI)
100
AcDbCircle
 10
1.992648633704331
 20
1.667574980891498
 30
0.0
 40
0.0474999999999899
  0
CIRCLE
  5
101
330
37
100
AcDbEntity
  8
Visible (ANSI)
100
AcDbCircle
 10
2.438628333704345
 20
1.42656993089148
 30
0.0
 40
0.0474999999999899
  0
CIRCLE
  5
102
330
37
100
AcDbEntity
  8
Visible (ANSI)
100
AcDbCircle
 10
2.408628333704311
 20
1.577574980891531
 30
0.0
 40
0.0499999999999899
  0
CIRCLE
  5
103
330
37
100
AcDbEntity
  8
Visible (ANSI)
100
AcDbCircle
 10
1.846643533704314
 20
1.695574980891523
 30
0.0
 40
0.0499999999999899
  0
CIRCLE
  5
104
330
37
100
AcDbEntity
  8
Visible (ANSI)
100
AcDbCircle
 10
2.190638482904332
 20
1.426569930091554
 30
0.0
 40
0.0474999999999899
  0
CIRCLE
  5
105
330
37
100
AcDbEntity
  8
Visible (ANSI)
100
AcDbCircle
 10
1.992648584504338
 20
1.426569930091554
 30
0.0
 40
0.0474999999999899
  0
CIRCLE
  5
106
330
37
100
AcDbEntity
  8
Visible (ANSI)
100
AcDbCircle
 10
2.438628333704345
 20
1.42656993089148
 30
0.0
 40
0.0445
  0
CIRCLE
  5
107
330
37
100
AcDbEntity
  8
Visible (ANSI)
100
AcDbCircle
 10
1.992648584504338
 20
1.426569930091554
 30
0.0
 40
0.0445
  0
CIRCLE
  5
108
330
37
100
AcDbEntity
  8
Visible (ANSI)
100
AcDbCircle
 10
2.408628333704311
 20
1.577574980891531
 30
0.0
 40
0.047
  0
CIRCLE
  5
109
330
37
100
AcDbEntity
  8
Visible (ANSI)
100
AcDbCircle
 10
2.190638482904332
 20
1.426569930091554
 30
0.0
 40
0.0445
  0
CIRCLE
  5
10A
330
37
100
AcDbEntity
  8
Visible (ANSI)
100
AcDbCircle
 10
1.846643533704314
 20
1.695574980891523
 30
0.0
 40
0.047
  0
LINE
  5
10B
330
37
100
AcDbEntity
  8
Visible (ANSI)
100
AcDbLine
 10
1.86176774370434
 20
1.427574980891587
 30
0.0
 11
1.86176774370434
 21
1.327574980891624
 31
0.0
  0
LINE
  5
10C
330
37
100
AcDbEntity
  8
Visible (ANSI)
100
AcDbLine
 10
2.553267733704358
 20
1.327574980891624
 30
0.0
 11
1.86176774370434
 21
1.327574980891624
 31
0.0
  0
LINE
  5
10D
330
37
100
AcDbEntity
  8
Visible (ANSI)
100
AcDbLine
 10
2.553267733704358
 20
1.777574980891636
 30
0.0
 11
2.553267733704358
 21
1.327574980891624
 31
0.0
  0
LINE
  5
10E
330
37
100
AcDbEntity
  8
Visible (ANSI)
100
AcDbLine
 10
1.653267743704391
 20
1.777574980891636
 30
0.0
 11
2.553267733704358
 21
1.777574980891636
 31
0.0
  0
LINE
  5
10F
330
37
100
AcDbEntity
  8
Visible (ANSI)
100
AcDbLine
 10
1.653267743704391
 20
1.777574980891636
 30
0.0
 11
1.653267743704391
 21
1.34957498089158
 31
0.0
  0
LINE
  5
110
330
37
100
AcDbEntity
  8
Visible (ANSI)
100
AcDbLine
 10
1.653267743704391
 20
1.34957498089158
 30
0.0
 11
1.713267743704324
 21
1.34957498089158
 31
0.0
  0
LINE
  5
111
330
37
100
AcDbEntity
  8
Visible (ANSI)
100
AcDbLine
 10
1.713267743704324
 20
1.34957498089158
 30
0.0
 11
1.713267743704324
 21
1.427574980891587
 31
0.0
  0
ARC
  5
112
330
37
100
AcDbEntity
  8
Visible (ANSI)
100
AcDbCircle
 10
1.78751774370431
 20
1.427574980891587
 30
0.0
 40
0.0742499999999858
100
AcDbArc
 50
0.0
 51
180.0
  0
LINE
  5
113
330
37
100
AcDbEntity
  8
Visible (ANSI)
100
AcDbLine
 10
1.86176774370434
 20
1.327574980891624
 30
0.0
 11
1.843267743704365
 21
1.327574980891624
 31
0.0
  0
LINE
  5
114
330
37
100
AcDbEntity
  8
Visible (ANSI)
100
AcDbLine
 10
1.843267743704365
 20
1.327574980891624
 30
0.0
 11
1.811767743704314
 21
1.327574980891624
 31
0.0
  0
LINE
  5
115
330
37
100
AcDbEntity
  8
Visible (ANSI)
100
AcDbLine
 10
1.811767743704359
 20
1.327574980891624
 30
0.0
 11
1.793267743704386
 21
1.327574980891624
 31
0.0
  0
LINE
  5
116
330
37
100
AcDbEntity
  8
Visible (ANSI)
100
AcDbLine
 10
1.723567743704368
 20
1.327574980891624
 30
0.0
 11
1.713267743704363
 21
1.327574980891624
 31
0.0
  0
LINE
  5
117
330
37
100
AcDbEntity
  8
Visible (ANSI)
100
AcDbLine
 10
1.713267743704324
 20
1.327574980891624
 30
0.0
 11
1.653267743704391
 21
1.327574980891624
 31
0.0
  0
LINE
  5
118
330
37
100
AcDbEntity
  8
Visible (ANSI)
100
AcDbLine
 10
1.653267743704391
 20
1.327574980891624
 30
0.0
 11
1.653267743704391
 21
1.349574980891425
 31
0.0
  0
LINE
  5
119
330
37
100
AcDbEntity
  8
Visible (ANSI)
100
AcDbLine
 10
1.713267743704324
 20
1.346074980891555
 30
0.0
 11
1.731767743704344
 21
1.346074980891555
 31
0.0
  0
LINE
  5
11A
330
37
100
AcDbEntity
  8
Visible (ANSI)
100
AcDbLine
 10
1.843267743704365
 20
1.327574980891624
 30
0.0
 11
1.843267743704365
 21
1.427574980891587
 31
0.0
  0
ARC
  5
11B
330
37
100
AcDbEntity
  8
Visible (ANSI)
100
AcDbCircle
 10
1.78751774370431
 20
1.427574980891587
 30
0.0
 40
0.0557500000000106
100
AcDbArc
 50
0.0
 51
180.0
  0
ARC
  5
11C
330
37
100
AcDbEntity
  8
Visible (ANSI)
100
AcDbCircle
 10
1.728267743704453
 20
1.339574980891405
 30
0.0
 40
0.0034999999998913
100
AcDbArc
 50
269.9999999985346
 51
0.0
  0
LINE
  5
11D
330
37
100
AcDbEntity
  8
Visible (ANSI)
100
AcDbLine
 10
1.728267743704363
 20
1.336074980891558
 30
0.0
 11
1.723567743704368
 21
1.336074980891558
 31
0.0
  0
LINE
  5
11E
330
37
100
AcDbEntity
  8
Visible (ANSI)
100
AcDbLine
 10
1.723567743704368
 20
1.336074980891558
 30
0.0
 11
1.723567743704368
 21
1.327574980891624
 31
0.0
  0
LINE
  5
11F
330
37
100
AcDbEntity
  8
Visible (ANSI)
100
AcDbLine
 10
1.731767743704344
 20
1.427574980891587
 30
0.0
 11
1.731767743704344
 21
1.339574980891584
 31
0.0
  0
LINE
  5
120
330
37
100
AcDbEntity
  8
Visible (ANSI)
100
AcDbLine
 10
1.793267743704384
 20
1.346074980891555
 30
0.0
 11
1.811767743704314
 21
1.346074980891555
 31
0.0
  0
LINE
  5
121
330
37
100
AcDbEntity
  8
Visible (ANSI)
100
AcDbLine
 10
1.713267743704324
 20
1.34957498089158
 30
0.0
 11
1.713267743704324
 21
1.327574980891624
 31
0.0
  0
LINE
  5
122
330
37
100
AcDbEntity
  8
Visible (ANSI)
100
AcDbLine
 10
1.811767743704314
 20
1.346074980891555
 30
0.0
 11
1.811767743704314
 21
1.327574980891624
 31
0.0
  0
LINE
  5
123
330
37
100
AcDbEntity
  8
Visible (ANSI)
100
AcDbLine
 10
1.793267743704384
 20
1.327574980891624
 30
0.0
 11
1.793267743704384
 21
1.346074980891555
 31
0.0
  0
LINE
  5
124
330
37
100
AcDbEntity
  8
Visible (ANSI)
100
AcDbLine
 10
1.793267743704384
 20
1.327574980891624
 30
0.0
 11
1.723567743704368
 21
1.327574980891624
 31
0.0
  0
CIRCLE
  5
125
330
37
100
AcDbEntity
  8
Visible (ANSI)
100
AcDbCircle
 10
1.846643533704314
 20
1.695574980891523
 30
0.0
 40
0.046875
  0
CIRCLE
  5
126
330
37
100
AcDbEntity
  8
Visible (ANSI)
100
AcDbCircle
 10
2.408628333704311
 20
1.577574980891531
 30
0.0
 40
0.046875
  0
INSERT
  5
14D
330
37
100
AcDbEntity
  8
Dimension (ANSI)
100
AcDbBlockReference
  2
Origin Indicator Symbol1
 10
0.0
 20
0.0
 30
0.0
 41
0.25
 42
0.25
 43
0.25
  0
MTEXT
  5
14E
330
37
100
AcDbEntity
  8
Symbol (ANSI)
100
AcDbMText
 10
1.215735384937709
 20
0.1795902606247602
 30
0.0
 40
0.0300000003707691
 41
0.0
 71
     1
 72
     1
  1
{B4}
  7
Note Text (ANSI)
 73
     1
 44
1.0
1001
ACAD
1000
MTEXTBEGIN
1070
    73
1070
     1
1070
    44
1040
1.0
1070
    74
1070
     0
1000
MTEXTEND
  0
LINE
  5
14F
330
37
100
AcDbEntity
  8
Visible (ANSI)
100
AcDbLine
 10
2.555874368833901
 20
0.8275673094435253
 30
0.0
 11
1.864374378833883
 21
0.8275673094435255
 31
0.0
  0
LINE
  5
150
330
37
100
AcDbEntity
  8
Visible (ANSI)
100
AcDbLine
 10
1.655874378833933
 20
0.8275673094435298
 30
0.0
 11
1.715874378833866
 21
0.8275673094435298
 31
0.0
  0
LINE
  5
151
330
37
100
AcDbEntity
  8
Visible (ANSI)
100
AcDbLine
 10
1.715874378833866
 20
0.8275673094435449
 30
0.0
 11
1.726174378834004
 21
0.8275673094435521
 31
0.0
  0
LINE
  5
152
330
37
100
AcDbEntity
  8
Visible (ANSI)
100
AcDbLine
 10
1.845874378833863
 20
0.8275673094435543
 30
0.0
 11
1.864374378833858
 21
0.8275673094435449
 31
0.0
  0
LINE
  5
153
330
37
100
AcDbEntity
  8
Visible (ANSI)
100
AcDbLine
 10
1.655874378833933
 20
0.3775673094435256
 30
0.0
 11
2.555874368833901
 21
0.3775673094435255
 31
0.0
  0
LINE
  5
154
330
37
100
AcDbEntity
  8
Visible (ANSI)
100
AcDbLine
 10
1.864374378833883
 20
0.8275673094435255
 30
0.0
 11
1.864374378833883
 21
0.8090673094435254
 31
0.0
  0
LINE
  5
155
330
37
100
AcDbEntity
  8
Visible (ANSI)
100
AcDbLine
 10
1.864374378833883
 20
0.8090673094435254
 30
0.0
 11
1.845874378833907
 21
0.8090673094435254
 31
0.0
  0
LINE
  5
156
330
37
100
AcDbEntity
  8
Visible (ANSI)
100
AcDbLine
 10
1.845874378833907
 20
0.8090673094435254
 30
0.0
 11
1.845874378833907
 21
0.8275673094435255
 31
0.0
  0
LINE
  5
157
330
37
100
AcDbEntity
  8
Visible (ANSI)
100
AcDbLine
 10
1.845874378833907
 20
0.8275673094435255
 30
0.0
 11
1.814374378833856
 21
0.8275673094435255
 31
0.0
  0
LINE
  5
158
330
37
100
AcDbEntity
  8
Visible (ANSI)
100
AcDbLine
 10
1.814374378833856
 20
0.8275673094435255
 30
0.0
 11
1.814374378833856
 21
0.7275673094435257
 31
0.0
  0
ARC
  5
159
330
37
100
AcDbEntity
  8
Visible (ANSI)
100
AcDbCircle
 10
1.765124378833906
 20
0.7275673094435432
 30
0.0
 40
0.0492499999999951
100
AcDbArc
 50
180.0
 51
0.0
  0
LINE
  5
15A
330
37
100
AcDbEntity
  8
Visible (ANSI)
100
AcDbLine
 10
1.715874378833866
 20
0.7275673094435257
 30
0.0
 11
1.715874378833866
 21
0.8055673094435254
 31
0.0
  0
LINE
  5
15B
330
37
100
AcDbEntity
  8
Visible (ANSI)
100
AcDbLine
 10
1.715874378833866
 20
0.8055673094435254
 30
0.0
 11
1.655874378833933
 21
0.8055673094435254
 31
0.0
  0
LINE
  5
15C
330
37
100
AcDbEntity
  8
Visible (ANSI)
100
AcDbLine
 10
1.655874378833933
 20
0.8055673094435254
 30
0.0
 11
1.655874378833933
 21
0.3775673094435256
 31
0.0
  0
LINE
  5
15D
330
37
100
AcDbEntity
  8
Visible (ANSI)
100
AcDbLine
 10
2.555874368833901
 20
0.3775673094435255
 30
0.0
 11
2.555874368833901
 21
0.8275673094435253
 31
0.0
  0
LINE
  5
15E
330
37
100
AcDbEntity
  8
Visible (ANSI)
100
AcDbLine
 10
1.655874378833933
 20
0.8055673094435254
 30
0.0
 11
1.655874378833933
 21
0.8275673094435298
 31
0.0
  0
LINE
  5
15F
330
37
100
AcDbEntity
  8
Visible (ANSI)
100
AcDbLine
 10
1.715874378833866
 20
0.809067309443529
 30
0.0
 11
1.734374378833886
 21
0.809067309443529
 31
0.0
  0
LINE
  5
160
330
37
100
AcDbEntity
  8
Visible (ANSI)
100
AcDbLine
 10
1.726174378833911
 20
0.8275673094435255
 30
0.0
 11
1.726174378833911
 21
0.8190673094435254
 31
0.0
  0
LINE
  5
161
330
37
100
AcDbEntity
  8
Visible (ANSI)
100
AcDbLine
 10
1.726174378833911
 20
0.8190673094435254
 30
0.0
 11
1.730874378833905
 21
0.8190673094435254
 31
0.0
  0
ARC
  5
162
330
37
100
AcDbEntity
  8
Visible (ANSI)
100
AcDbCircle
 10
1.73087437883395
 20
0.8155673094435753
 30
0.0
 40
0.0034999999999502
100
AcDbArc
 50
0.0
 51
90.00000000073269
  0
LINE
  5
163
330
37
100
AcDbEntity
  8
Visible (ANSI)
100
AcDbLine
 10
1.734374378833886
 20
0.8155673094435254
 30
0.0
 11
1.734374378833886
 21
0.7275673094435257
 31
0.0
  0
ARC
  5
164
330
37
100
AcDbEntity
  8
Visible (ANSI)
100
AcDbCircle
 10
1.765124378833906
 20
0.7275673094435455
 30
0.0
 40
0.0307500000000199
100
AcDbArc
 50
180.0
 51
0.0
  0
LINE
  5
165
330
37
100
AcDbEntity
  8
Visible (ANSI)
100
AcDbLine
 10
1.795874378833926
 20
0.827567309443529
 30
0.0
 11
1.814374378833856
 21
0.827567309443529
 31
0.0
  0
LINE
  5
166
330
37
100
AcDbEntity
  8
Visible (ANSI)
100
AcDbLine
 10
1.715874378833866
 20
0.8275673094435298
 30
0.0
 11
1.715874378833866
 21
0.8055673094433705
 31
0.0
  0
LINE
  5
167
330
37
100
AcDbEntity
  8
Visible (ANSI)
100
AcDbLine
 10
1.795874378833926
 20
0.7275673094435257
 30
0.0
 11
1.795874378833926
 21
0.8275673094435255
 31
0.0
  0
LINE
  5
168
330
37
100
AcDbEntity
  8
Visible (ANSI)
100
AcDbLine
 10
1.795874378833926
 20
0.8275673094435255
 30
0.0
 11
1.726174378833911
 21
0.8275673094435255
 31
0.0
  0
CIRCLE
  5
169
330
37
100
AcDbEntity
  8
Visible (ANSI)
100
AcDbCircle
 10
2.094255219633906
 20
0.7285723602435262
 30
0.0
 40
0.0445
  0
CIRCLE
  5
16A
330
37
100
AcDbEntity
  8
Visible (ANSI)
100
AcDbCircle
 10
2.292245118033855
 20
0.7285723602435262
 30
0.0
 40
0.0445
  0
CIRCLE
  5
16B
330
37
100
AcDbEntity
  8
Visible (ANSI)
100
AcDbCircle
 10
1.895250168833911
 20
0.4805673094435261
 30
0.0
 40
0.0445
  0
CIRCLE
  5
16C
330
37
100
AcDbEntity
  8
Visible (ANSI)
100
AcDbCircle
 10
1.895250168833911
 20
0.4805673094435256
 30
0.0
 40
0.0474999999999899
  0
CIRCLE
  5
16D
330
37
100
AcDbEntity
  8
Visible (ANSI)
100
AcDbCircle
 10
2.441234968833887
 20
0.4805673094435255
 30
0.0
 40
0.0474999999999899
  0
CIRCLE
  5
16E
330
37
100
AcDbEntity
  8
Visible (ANSI)
100
AcDbCircle
 10
1.895250168833911
 20
0.7275673094435256
 30
0.0
 40
0.0499999999999899
  0
CIRCLE
  5
16F
330
37
100
AcDbEntity
  8
Visible (ANSI)
100
AcDbCircle
 10
2.301250168833876
 20
0.5775673094435256
 30
0.0
 40
0.0499999999999899
  0
CIRCLE
  5
170
330
37
100
AcDbEntity
  8
Visible (ANSI)
100
AcDbCircle
 10
2.094255219633906
 20
0.7285723602435256
 30
0.0
 40
0.0474999999999899
  0
CIRCLE
  5
171
330
37
100
AcDbEntity
  8
Visible (ANSI)
100
AcDbCircle
 10
2.292245118033855
 20
0.7285723602435256
 30
0.0
 40
0.0474999999999899
  0
CIRCLE
  5
172
330
37
100
AcDbEntity
  8
Visible (ANSI)
100
AcDbCircle
 10
2.441234968833887
 20
0.4805673094435261
 30
0.0
 40
0.0445
  0
CIRCLE
  5
173
330
37
100
AcDbEntity
  8
Visible (ANSI)
100
AcDbCircle
 10
1.895250168833911
 20
0.7275673094435261
 30
0.0
 40
0.047
  0
CIRCLE
  5
174
330
37
100
AcDbEntity
  8
Visible (ANSI)
100
AcDbCircle
 10
2.301250168833876
 20
0.5775673094435262
 30
0.0
 40
0.047
  0
CIRCLE
  5
175
330
37
100
AcDbEntity
  8
Visible (ANSI)
100
AcDbCircle
 10
2.301250168833876
 20
0.5775673094435641
 30
0.0
 40
0.046875
  0
CIRCLE
  5
176
330
37
100
AcDbEntity
  8
Visible (ANSI)
100
AcDbCircle
 10
1.895250168833911
 20
0.7275673094435641
 30
0.0
 40
0.046875
  0
INSERT
  5
19D
330
37
100
AcDbEntity
  8
Dimension (ANSI)
100
AcDbBlockReference
  2
Origin Indicator Symbol2
 10
0.0
 20
0.0
 30
0.0
 41
0.25
 42
0.25
 43
0.25
  0
INSERT
  5
222
330
37
100
AcDbEntity
  8
Symbol (ANSI)
100
AcDbBlockReference
  2
Hole Table1
 10
0.0
 20
0.0
 30
0.0
 41
0.25
 42
0.25
 43
0.25
  0
INSERT
  5
234
330
37
100
AcDbEntity
  8
Symbol (ANSI)
100
AcDbBlockReference
  2
Leader Text1
 10
0.0
 20
0.0
 30
0.0
 41
0.25
 42
0.25
 43
0.25
  0
INSERT
  5
246
330
37
100
AcDbEntity
  8
Symbol (ANSI)
100
AcDbBlockReference
  2
Leader Text2
 10
0.0
 20
0.0
 30
0.0
 41
0.25
 42
0.25
 43
0.25
  0
INSERT
  5
258
330
37
100
AcDbEntity
  8
Symbol (ANSI)
100
AcDbBlockReference
  2
Leader Text3
 10
0.0
 20
0.0
 30
0.0
 41
0.25
 42
0.25
 43
0.25
  0
INSERT
  5
26A
330
37
100
AcDbEntity
  8
Symbol (ANSI)
100
AcDbBlockReference
  2
Leader Text4
 10
0.0
 20
0.0
 30
0.0
 41
0.25
 42
0.25
 43
0.25
  0
INSERT
  5
27C
330
37
100
AcDbEntity
  8
Symbol (ANSI)
100
AcDbBlockReference
  2
Leader Text5
 10
0.0
 20
0.0
 30
0.0
 41
0.25
 42
0.25
 43
0.25
  0
INSERT
  5
28E
330
37
100
AcDbEntity
  8
Symbol (ANSI)
100
AcDbBlockReference
  2
Leader Text6
 10
0.0
 20
0.0
 30
0.0
 41
0.25
 42
0.25
 43
0.25
  0
INSERT
  5
31F
330
37
100
AcDbEntity
  8
Symbol (ANSI)
100
AcDbBlockReference
  2
Hole Table2
 10
0.0
 20
0.0
 30
0.0
 41
0.25
 42
0.25
 43
0.25
  0
INSERT
  5
331
330
37
100
AcDbEntity
  8
Symbol (ANSI)
100
AcDbBlockReference
  2
Leader Text7
 10
0.0
 20
0.0
 30
0.0
 41
0.25
 42
0.25
 43
0.25
  0
INSERT
  5
343
330
37
100
AcDbEntity
  8
Symbol (ANSI)
100
AcDbBlockReference
  2
Leader Text8
 10
0.0
 20
0.0
 30
0.0
 41
0.25
 42
0.25
 43
0.25
  0
INSERT
  5
355
330
37
100
AcDbEntity
  8
Symbol (ANSI)
100
AcDbBlockReference
  2
Leader Text9
 10
0.0
 20
0.0
 30
0.0
 41
0.25
 42
0.25
 43
0.25
  0
INSERT
  5
367
330
37
100
AcDbEntity
  8
Symbol (ANSI)
100
AcDbBlockReference
  2
Leader Text10
 10
0.0
 20
0.0
 30
0.0
 41
0.25
 42
0.25
 43
0.25
  0
INSERT
  5
379
330
37
100
AcDbEntity
  8
Symbol (ANSI)
100
AcDbBlockReference
  2
Leader Text11
 10
0.0
 20
0.0
 30
0.0
 41
0.25
 42
0.25
 43
0.25
  0
INSERT
  5
38B
330
37
100
AcDbEntity
  8
Symbol (ANSI)
100
AcDbBlockReference
  2
Leader Text12
 10
0.0
 20
0.0
 30
0.0
 41
0.25
 42
0.25
 43
0.25
  0
MTEXT
  5
38C
330
37
100
AcDbEntity
  8
Symbol (ANSI)
100
AcDbMText
 10
2.150473951213591
 20
1.967002374092396
 30
0.0
 40
0.0300000003707691
 41
0.311572110559058
 71
     1
 72
     1
  1
{2 OF 4 (BLOCK4)}
  7
Note Text (ANSI)
 73
     1
 44
1.0
1001
ACAD
1000
MTEXTBEGIN
1070
    73
1070
     1
1070
    44
1040
1.0
1070
    74
1070
     0
1000
MTEXTEND
  0
ENDSEC
  0
SECTION
  2
OBJECTS
  0
DICTIONARY
  5
C
330
0
100
AcDbDictionary
281
     1
  3
ACAD_COLOR
350
30
  3
ACAD_GROUP
350
D
  3
ACAD_LAYOUT
350
2F
  3
ACAD_MATERIAL
350
10
  3
ACAD_MLINESTYLE
350
2C
  3
ACAD_PLOTSETTINGS
350
2E
  3
ACAD_PLOTSTYLENAME
350
E
  3
ACAD_TABLESTYLE
350
31
  3
ACAD_VISUALSTYLE
350
14
  3
AcDbVariableDictionary
350
38D
  3
DWGPROPS
350
393
  0
DICTIONARY
  5
30
102
{ACAD_REACTORS
330
C
102
}
330
C
100
AcDbDictionary
281
     1
  0
DICTIONARY
  5
D
102
{ACAD_REACTORS
330
C
102
}
330
C
100
AcDbDictionary
281
     1
  0
DICTIONARY
  5
2F
102
{ACAD_REACTORS
330
C
102
}
330
C
100
AcDbDictionary
281
     1
  3
Layout1
350
36
  3
Layout2
350
3E
  3
Model
350
3A
  0
DICTIONARY
  5
10
102
{ACAD_REACTORS
330
C
102
}
330
C
100
AcDbDictionary
281
     1
  3
ByBlock
350
12
  3
ByLayer
350
11
  3
Global
350
13
  0
DICTIONARY
  5
2C
102
{ACAD_REACTORS
330
C
102
}
330
C
100
AcDbDictionary
281
     1
  3
Standard
350
2D
  0
DICTIONARY
  5
2E
102
{ACAD_REACTORS
330
C
102
}
330
C
100
AcDbDictionary
281
     1
  0
ACDBDICTIONARYWDFLT
  5
E
102
{ACAD_REACTORS
330
C
102
}
330
C
100
AcDbDictionary
281
     1
  3
Normal
350
F
100
AcDbDictionaryWithDefault
340
F
  0
DICTIONARY
  5
31
102
{ACAD_REACTORS
330
C
102
}
330
C
100
AcDbDictionary
281
     1
  3
Standard
350
32
  0
DICTIONARY
  5
14
102
{ACAD_REACTORS
330
C
102
}
330
C
100
AcDbDictionary
281
     1
  3
2dWireframe
350
1A
  3
3D Hidden
350
1C
  3
3dWireframe
350
1B
  3
Basic
350
19
  3
Brighten
350
20
  3
ColorChange
350
24
  3
Conceptual
350
1D
  3
Dim
350
1F
  3
Facepattern
350
23
  3
Flat
350
15
  3
FlatWithEdges
350
16
  3
Gouraud
350
17
  3
GouraudWithEdges
350
18
  3
Linepattern
350
22
  3
Realistic
350
1E
  3
Thicken
350
21
  0
DICTIONARY
  5
38D
102
{ACAD_REACTORS
330
C
102
}
330
C
100
AcDbDictionary
281
     1
  3
CTABLESTYLE
350
38E
  3
DIMASSOC
350
392
  3
HIDETEXT
350
391
  3
INDEXCTL
350
390
  3
SORTENTS
350
38F
  0
XRECORD
  5
393
102
{ACAD_REACTORS
330
C
102
}
330
C
100
AcDbXrecord
280
     1
  1
DWGPROPS COOKIE
  2

  3

  4
Da Chow
  6

  7

  8

  9

300
Manager=
301
Company=
302
Category=
303
Part Number=Block4-V61
304
Description=
305
Project=
306
Designer=Da Chow
307
Engineer=
308
Authority=
309
Cost Center=
 40
0.000026400462963
 41
2454846.639317489
 42
2454846.639317489
  1

 90
       18
300
Vendor=
300
User Status=
300
Design Status=WorkInProgress
300
Checked by=
300
Date Checked=01/14/2009
300
Engr Approved by=
300
Mfg Approved by=
300
Telephone number=510 2076
  0
LAYOUT
  5
36
102
{ACAD_XDICTIONARY
360
39C
102
}
102
{ACAD_REACTORS
330
2F
102
}
330
2F
100
AcDbPlotSettings
  1

  2

  4

  6

 40
0.0
 41
0.0
 42
0.0
 43
0.0
 44
0.0
 45
0.0
 46
0.0
 47
0.0
 48
0.0
 49
0.0
140
0.0
141
0.0
142
1.0
143
1.0
 70
   688
 72
     0
 73
     0
 74
     5
  7

 75
    16
147
1.0
148
0.0
149
0.0
100
AcDbLayout
  1
Layout1
 70
     1
 71
     1
 10
0.0
 20
0.0
 11
12.0
 21
9.0
 12
0.0
 22
0.0
 32
0.0
 14
0.0
 24
0.0
 34
0.0
 15
0.0
 25
0.0
 35
0.0
146
0.0
 13
0.0
 23
0.0
 33
0.0
 16
1.0
 26
0.0
 36
0.0
 17
0.0
 27
1.0
 37
0.0
 76
     0
330
33
  0
LAYOUT
  5
3E
102
{ACAD_XDICTIONARY
360
3A0
102
}
102
{ACAD_REACTORS
330
2F
102
}
330
2F
100
AcDbPlotSettings
  1

  2

  4

  6

 40
0.0
 41
0.0
 42
0.0
 43
0.0
 44
0.0
 45
0.0
 46
0.0
 47
0.0
 48
0.0
 49
0.0
140
0.0
141
0.0
142
1.0
143
1.0
 70
   688
 72
     0
 73
     0
 74
     5
  7

 75
    16
147
1.0
148
0.0
149
0.0
100
AcDbLayout
  1
Layout2
 70
     1
 71
     2
 10
0.0
 20
0.0
 11
12.0
 21
9.0
 12
0.0
 22
0.0
 32
0.0
 14
0.0
 24
0.0
 34
0.0
 15
0.0
 25
0.0
 35
0.0
146
0.0
 13
0.0
 23
0.0
 33
0.0
 16
1.0
 26
0.0
 36
0.0
 17
0.0
 27
1.0
 37
0.0
 76
     0
330
3B
  0
LAYOUT
  5
3A
102
{ACAD_XDICTIONARY
360
39E
102
}
102
{ACAD_REACTORS
330
2F
102
}
330
2F
100
AcDbPlotSettings
  1

  2

  4

  6

 40
0.0
 41
0.0
 42
0.0
 43
0.0
 44
0.0
 45
0.0
 46
0.0
 47
0.0
 48
0.0
 49
0.0
140
0.0
141
0.0
142
1.0
143
1.0
 70
  1712
 72
     0
 73
     0
 74
     0
  7

 75
     0
147
1.0
148
0.0
149
0.0
100
AcDbLayout
  1
Model
 70
     1
 71
     0
 10
0.0
 20
0.0
 11
12.0
 21
9.0
 12
0.0
 22
0.0
 32
0.0
 14
0.0
 24
0.0
 34
0.0
 15
0.0
 25
0.0
 35
0.0
146
0.0
 13
0.0
 23
0.0
 33
0.0
 16
1.0
 26
0.0
 36
0.0
 17
0.0
 27
1.0
 37
0.0
 76
     0
330
37
  0
MATERIAL
  5
12
102
{ACAD_XDICTIONARY
360
396
102
}
102
{ACAD_REACTORS
330
10
102
}
330
10
100
AcDbMaterial
  1
ByBlock
  0
MATERIAL
  5
11
102
{ACAD_XDICTIONARY
360
394
102
}
102
{ACAD_REACTORS
330
10
102
}
330
10
100
AcDbMaterial
  1
ByLayer
  0
MATERIAL
  5
13
102
{ACAD_XDICTIONARY
360
398
102
}
102
{ACAD_REACTORS
330
10
102
}
330
10
100
AcDbMaterial
  1
Global
  0
MLINESTYLE
  5
2D
102
{ACAD_REACTORS
330
2C
102
}
330
2C
100
AcDbMlineStyle
  2
STANDARD
 70
     0
  3

 62
   256
 51
90.0
 52
90.0
 71
     2
 49
0.5
 62
   256
  6
BYLAYER
 49
-0.5
 62
   256
  6
BYLAYER
  0
ACDBPLACEHOLDER
  5
F
102
{ACAD_REACTORS
330
E
102
}
330
E
  0
TABLESTYLE
  5
32
102
{ACAD_XDICTIONARY
360
39A
102
}
102
{ACAD_REACTORS
330
31
102
}
330
31
100
AcDbTableStyle
  3
Standard
 70
     0
 71
     0
 40
0.06
 41
0.06
280
     0
281
     0
  7
Standard
140
0.18
170
     2
 62
     0
 63
     7
283
     0
274
    -2
284
     1
 64
     0
275
    -2
285
     1
 65
     0
276
    -2
286
     1
 66
     0
277
    -2
287
     1
 67
     0
278
    -2
288
     1
 68
     0
279
    -2
289
     1
 69
     0
  7
Standard
140
0.25
170
     5
 62
     0
 63
     7
283
     0
274
    -2
284
     1
 64
     0
275
    -2
285
     1
 65
     0
276
    -2
286
     1
 66
     0
277
    -2
287
     1
 67
     0
278
    -2
288
     1
 68
     0
279
    -2
289
     1
 69
     0
  7
Standard
140
0.18
170
     5
 62
     0
 63
     7
283
     0
274
    -2
284
     1
 64
     0
275
    -2
285
     1
 65
     0
276
    -2
286
     1
 66
     0
277
    -2
287
     1
 67
     0
278
    -2
288
     1
 68
     0
279
    -2
289
     1
 69
     0
  0
VISUALSTYLE
  5
1A
102
{ACAD_REACTORS
330
14
102
}
330
14
100
AcDbVisualStyle
  2
2dWireframe
 70
     4
 71
     0
 72
     2
 73
     0
 90
        0
 40
-0.6
 41
-30.0
 62
     5
 63
     7
 74
     1
 91
        4
 64
     7
 65
   257
 75
     1
175
     1
 42
1.0
 92
        0
 66
   257
 43
1.0
 76
     1
 77
     6
 78
     2
 67
     7
 79
     5
170
     0
171
     0
290
     0
174
     0
 93
        1
 44
0.0
173
     0
291
     0
 45
0.0
1001
ACAD
1000
AcDbSavedByObjectVersion
1070
     0
  0
VISUALSTYLE
  5
1C
102
{ACAD_REACTORS
330
14
102
}
330
14
100
AcDbVisualStyle
  2
3D Hidden
 70
     6
 71
     1
 72
     2
 73
     2
 90
        0
 40
-0.6
 41
-30.0
 62
     5
 63
     7
 74
     2
 91
        2
 64
     7
 65
   257
 75
     2
175
     1
 42
40.0
 92
        0
 66
   257
 43
1.0
 76
     1
 77
     6
 78
     2
 67
     7
 79
     3
170
     0
171
     0
290
     0
174
     0
 93
        1
 44
0.0
173
     0
291
     0
 45
0.0
1001
ACAD
1000
AcDbSavedByObjectVersion
1070
     0
  0
VISUALSTYLE
  5
1B
102
{ACAD_REACTORS
330
14
102
}
330
14
100
AcDbVisualStyle
  2
3dWireframe
 70
     5
 71
     0
 72
     2
 73
     0
 90
        0
 40
-0.6
 41
-30.0
 62
     5
 63
     7
 74
     1
 91
        4
 64
     7
 65
   257
 75
     1
175
     1
 42
1.0
 92
        0
 66
   257
 43
1.0
 76
     1
 77
     6
 78
     2
 67
     7
 79
     5
170
     0
171
     0
290
     0
174
     0
 93
        1
 44
0.0
173
     0
291
     0
 45
0.0
1001
ACAD
1000
AcDbSavedByObjectVersion
1070
     0
  0
VISUALSTYLE
  5
19
102
{ACAD_REACTORS
330
14
102
}
330
14
100
AcDbVisualStyle
  2
Basic
 70
     7
 71
     1
 72
     0
 73
     1
 90
        0
 40
-0.6
 41
-30.0
 62
     5
 63
     7
 74
     0
 91
        4
 64
     7
 65
   257
 75
     1
175
     1
 42
1.0
 92
        8
 66
     7
 43
1.0
 76
     1
 77
     6
 78
     2
 67
     7
 79
     5
170
     0
171
     0
290
     0
174
     0
 93
        1
 44
0.0
173
     0
291
     1
 45
0.0
1001
ACAD
1000
AcDbSavedByObjectVersion
1070
     0
  0
VISUALSTYLE
  5
20
102
{ACAD_REACTORS
330
14
102
}
330
14
100
AcDbVisualStyle
  2
Brighten
 70
    12
 71
     2
 72
     2
 73
     0
 90
        0
 40
-0.6
 41
-30.0
 62
     5
 63
     7
 74
     1
 91
        4
 64
     7
 65
   257
 75
     1
175
     1
 42
1.0
 92
        8
 66
     7
 43
1.0
 76
     1
 77
     6
 78
     2
 67
     7
 79
     5
170
     0
171
     0
290
     0
174
     0
 93
        1
 44
50.0
173
     0
291
     1
 45
0.0
1001
ACAD
1000
AcDbSavedByObjectVersion
1070
     0
  0
VISUALSTYLE
  5
24
102
{ACAD_REACTORS
330
14
102
}
330
14
100
AcDbVisualStyle
  2
ColorChange
 70
    16
 71
     2
 72
     2
 73
     3
 90
        0
 40
-0.6
 41
-30.0
 62
     5
 63
     8
 74
     1
 91
        4
 64
     7
 65
   257
 75
     1
175
     1
 42
1.0
 92
        8
 66
     8
 43
1.0
 76
     1
 77
     6
 78
     2
 67
     7
 79
     5
170
     0
171
     0
290
     0
174
     0
 93
        1
 44
0.0
173
     0
291
     1
 45
0.0
1001
ACAD
1000
AcDbSavedByObjectVersion
1070
     0
  0
VISUALSTYLE
  5
1D
102
{ACAD_REACTORS
330
14
102
}
330
14
100
AcDbVisualStyle
  2
Conceptual
 70
     9
 71
     3
 72
     2
 73
     0
 90
        0
 40
-0.6
 41
-30.0
 62
     5
 63
     7
 74
     2
 91
        2
 64
     7
 65
   257
 75
     1
175
     1
 42
40.0
 92
        8
 66
     7
 43
1.0
 76
     1
 77
     6
 78
     2
 67
     7
 79
     3
170
     0
171
     0
290
     0
174
     0
 93
        1
 44
0.0
173
     0
291
     0
 45
0.0
1001
ACAD
1000
AcDbSavedByObjectVersion
1070
     0
  0
VISUALSTYLE
  5
1F
102
{ACAD_REACTORS
330
14
102
}
330
14
100
AcDbVisualStyle
  2
Dim
 70
    11
 71
     2
 72
     2
 73
     0
 90
        0
 40
-0.6
 41
-30.0
 62
     5
 63
     7
 74
     1
 91
        4
 64
     7
 65
   257
 75
     1
175
     1
 42
1.0
 92
        8
 66
     7
 43
1.0
 76
     1
 77
     6
 78
     2
 67
     7
 79
     5
170
     0
171
     0
290
     0
174
     0
 93
        1
 44
-50.0
173
     0
291
     1
 45
0.0
1001
ACAD
1000
AcDbSavedByObjectVersion
1070
     0
  0
VISUALSTYLE
  5
23
102
{ACAD_REACTORS
330
14
102
}
330
14
100
AcDbVisualStyle
  2
Facepattern
 70
    15
 71
     2
 72
     2
 73
     0
 90
        0
 40
-0.6
 41
-30.0
 62
     5
 63
     7
 74
     1
 91
        4
 64
     7
 65
   257
 75
     1
175
     1
 42
1.0
 92
        8
 66
     7
 43
1.0
 76
     1
 77
     6
 78
     2
 67
     7
 79
     5
170
     0
171
     0
290
     0
174
     0
 93
        1
 44
0.0
173
     0
291
     1
 45
0.0
1001
ACAD
1000
AcDbSavedByObjectVersion
1070
     0
  0
VISUALSTYLE
  5
15
102
{ACAD_REACTORS
330
14
102
}
330
14
100
AcDbVisualStyle
  2
Flat
 70
     0
 71
     2
 72
     1
 73
     1
 90
        2
 40
-0.6
 41
30.0
 62
     5
 63
     7
 74
     0
 91
        4
 64
     7
 65
   257
 75
     1
175
     1
 42
1.0
 92
        8
 66
     7
 43
1.0
 76
     1
 77
     6
 78
     2
 67
     7
 79
     5
170
     0
171
     0
290
     0
174
     0
 93
       13
 44
0.0
173
     0
291
     1
 45
0.0
1001
ACAD
1000
AcDbSavedByObjectVersion
1070
     0
  0
VISUALSTYLE
  5
16
102
{ACAD_REACTORS
330
14
102
}
330
14
100
AcDbVisualStyle
  2
FlatWithEdges
 70
     1
 71
     2
 72
     1
 73
     1
 90
        2
 40
-0.6
 41
30.0
 62
     5
 63
     7
 74
     1
 91
        4
 64
     7
 65
   257
 75
     1
175
     1
 42
1.0
 92
        0
 66
   257
 43
1.0
 76
     1
 77
     6
 78
     2
 67
     7
 79
     5
170
     0
171
     0
290
     0
174
     0
 93
       13
 44
0.0
173
     0
291
     1
 45
0.0
1001
ACAD
1000
AcDbSavedByObjectVersion
1070
     0
  0
VISUALSTYLE
  5
17
102
{ACAD_REACTORS
330
14
102
}
330
14
100
AcDbVisualStyle
  2
Gouraud
 70
     2
 71
     2
 72
     2
 73
     1
 90
        2
 40
-0.6
 41
30.0
 62
     5
 63
     7
 74
     0
 91
        4
 64
     7
 65
   257
 75
     1
175
     1
 42
1.0
 92
        0
 66
     7
 43
1.0
 76
     1
 77
     6
 78
     2
 67
     7
 79
     5
170
     0
171
     0
290
     0
174
     0
 93
       13
 44
0.0
173
     0
291
     1
 45
0.0
1001
ACAD
1000
AcDbSavedByObjectVersion
1070
     0
  0
VISUALSTYLE
  5
18
102
{ACAD_REACTORS
330
14
102
}
330
14
100
AcDbVisualStyle
  2
GouraudWithEdges
 70
     3
 71
     2
 72
     2
 73
     1
 90
        2
 40
-0.6
 41
30.0
 62
     5
 63
     7
 74
     1
 91
        4
 64
     7
 65
   257
 75
     1
175
     1
 42
1.0
 92
        0
 66
   257
 43
1.0
 76
     1
 77
     6
 78
     2
 67
     7
 79
     5
170
     0
171
     0
290
     0
174
     0
 93
       13
 44
0.0
173
     0
291
     1
 45
0.0
1001
ACAD
1000
AcDbSavedByObjectVersion
1070
     0
  0
VISUALSTYLE
  5
22
102
{ACAD_REACTORS
330
14
102
}
330
14
100
AcDbVisualStyle
  2
Linepattern
 70
    14
 71
     2
 72
     2
 73
     0
 90
        0
 40
-0.6
 41
-30.0
 62
     5
 63
     7
 74
     1
 91
        4
 64
     7
 65
   257
 75
     7
175
     7
 42
1.0
 92
        8
 66
     7
 43
1.0
 76
     1
 77
     6
 78
     2
 67
     7
 79
     5
170
     0
171
     0
290
     0
174
     0
 93
        1
 44
0.0
173
     0
291
     1
 45
0.0
1001
ACAD
1000
AcDbSavedByObjectVersion
1070
     0
  0
VISUALSTYLE
  5
1E
102
{ACAD_REACTORS
330
14
102
}
330
14
100
AcDbVisualStyle
  2
Realistic
 70
     8
 71
     2
 72
     2
 73
     0
 90
        0
 40
-0.6
 41
-30.0
 62
     5
 63
     7
 74
     1
 91
        0
 64
     7
 65
   257
 75
     1
175
     1
 42
1.0
 92
        8
 66
     8
 43
1.0
 76
     1
 77
     6
 78
     2
 67
     7
 79
     5
170
     0
171
     0
290
     0
174
     0
 93
       13
 44
0.0
173
     0
291
     0
 45
0.0
1001
ACAD
1000
AcDbSavedByObjectVersion
1070
     0
  0
VISUALSTYLE
  5
21
102
{ACAD_REACTORS
330
14
102
}
330
14
100
AcDbVisualStyle
  2
Thicken
 70
    13
 71
     2
 72
     2
 73
     0
 90
        0
 40
-0.6
 41
-30.0
 62
     5
 63
     7
 74
     1
 91
        4
 64
     7
 65
   257
 75
     1
175
     1
 42
1.0
 92
       12
 66
     7
 43
1.0
 76
     1
 77
     6
 78
     2
 67
     7
 79
     5
170
     0
171
     0
290
     0
174
     0
 93
        1
 44
0.0
173
     0
291
     1
 45
0.0
1001
ACAD
1000
AcDbSavedByObjectVersion
1070
     0
  0
DICTIONARYVAR
  5
38E
102
{ACAD_REACTORS
330
38D
102
}
330
38D
100
DictionaryVariables
280
     0
  1
STANDARD
  0
DICTIONARYVAR
  5
392
102
{ACAD_REACTORS
330
38D
102
}
330
38D
100
DictionaryVariables
280
     0
  1
1
  0
DICTIONARYVAR
  5
391
102
{ACAD_REACTORS
330
38D
102
}
330
38D
100
DictionaryVariables
280
     0
  1
1
  0
DICTIONARYVAR
  5
390
102
{ACAD_REACTORS
330
38D
102
}
330
38D
100
DictionaryVariables
280
     0
  1
0
  0
DICTIONARYVAR
  5
38F
102
{ACAD_REACTORS
330
38D
102
}
330
38D
100
DictionaryVariables
280
     0
  1
127
  0
DICTIONARY
  5
39C
330
36
100
AcDbDictionary
280
     1
281
     1
  3
ACAD_XREC_ROUNDTRIP
360
39D
  0
DICTIONARY
  5
3A0
330
3E
100
AcDbDictionary
280
     1
281
     1
  3
ACAD_XREC_ROUNDTRIP
360
3A1
  0
DICTIONARY
  5
39E
330
3A
100
AcDbDictionary
280
     1
281
     1
  3
ACAD_XREC_ROUNDTRIP
360
39F
  0
DICTIONARY
  5
396
330
12
100
AcDbDictionary
280
     1
281
     1
  3
ACAD_XREC_ROUNDTRIP
360
397
  0
DICTIONARY
  5
394
330
11
100
AcDbDictionary
280
     1
281
     1
  3
ACAD_XREC_ROUNDTRIP
360
395
  0
DICTIONARY
  5
398
330
13
100
AcDbDictionary
280
     1
281
     1
  3
ACAD_XREC_ROUNDTRIP
360
399
  0
DICTIONARY
  5
39A
330
32
100
AcDbDictionary
280
     1
281
     1
  3
ACAD_XREC_ROUNDTRIP
360
39B
  0
XRECORD
  5
39D
102
{ACAD_REACTORS
330
39C
102
}
330
39C
100
AcDbXrecord
280
     1
102
SHADEPLOT
 70
     0
102
SHADEPLOTRESLEVEL
 70
     2
102
SHADEPLOTCUSTOMDPI
 70
   300
  0
XRECORD
  5
3A1
102
{ACAD_REACTORS
330
3A0
102
}
330
3A0
100
AcDbXrecord
280
     1
102
SHADEPLOT
 70
     0
102
SHADEPLOTRESLEVEL
 70
     2
102
SHADEPLOTCUSTOMDPI
 70
   300
  0
XRECORD
  5
39F
102
{ACAD_REACTORS
330
39E
102
}
330
39E
100
AcDbXrecord
280
     1
102
SHADEPLOT
 70
     0
102
SHADEPLOTRESLEVEL
 70
     2
102
SHADEPLOTCUSTOMDPI
 70
   300
  0
XRECORD
  5
397
102
{ACAD_REACTORS
330
396
102
}
330
396
100
AcDbXrecord
280
     1
102
MATERIAL
148
0.0
149
0.0
149
0.0
 93
        0
 94
       63
282
     0
 72
     1
 77
     1
171
     1
175
     1
179
     1
273
     0
  0
XRECORD
  5
395
102
{ACAD_REACTORS
330
394
102
}
330
394
100
AcDbXrecord
280
     1
102
MATERIAL
148
0.0
149
0.0
149
0.0
 93
        0
 94
       63
282
     0
 72
     1
 77
     1
171
     1
175
     1
179
     1
273
     0
  0
XRECORD
  5
399
102
{ACAD_REACTORS
330
398
102
}
330
398
100
AcDbXrecord
280
     1
102
MATERIAL
148
0.0
149
0.0
149
0.0
 93
        0
 94
       63
282
     0
 72
     1
 77
     1
171
     1
175
     1
179
     1
273
     0
  0
XRECORD
  5
39B
102
{ACAD_REACTORS
330
39A
102
}
330
39A
100
AcDbXrecord
280
     1
102
ACAD_ROUNDTRIP_PRE2007_TABLESTYLE
 90
      512
 91
        0
  1

 92
      512
 93
        0
  2

 94
      512
 95
        0
  3

  0
ENDSEC
  0
EOF
