  0
SECTION
  2
HEADER
  9
$ACADVER
  1
AC1015
  9
$ACADMAINTVER
 70
    18
  9
$DWGCODEPAGE
  3
ANSI_1252
  9
$INSBASE
 10
0.0
 20
0.0
 30
0.0
  9
$EXTMIN
 10
0.0
 20
0.0
 30
0.0
  9
$EXTMAX
 10
5.5
 20
4.25
 30
0.0
  9
$LIMMIN
 10
0.0
 20
0.0
  9
$LIMMAX
 10
5.5
 20
4.25
  9
$ORTHOMODE
 70
     0
  9
$REGENMODE
 70
     1
  9
$FILLMODE
 70
     1
  9
$QTEXTMODE
 70
     0
  9
$MIRRTEXT
 70
     0
  9
$LTSCALE
 40
0.5
  9
$ATTMODE
 70
     1
  9
$TEXTSIZE
 40
0.2
  9
$TRACEWID
 40
0.05
  9
$TEXTSTYLE
  7
Standard
  9
$CLAYER
  8
0
  9
$CELTYPE
  6
ByLayer
  9
$CECOLOR
 62
   256
  9
$CELTSCALE
 40
1.0
  9
$DISPSILH
 70
     0
  9
$DIMSCALE
 40
1.0
  9
$DIMASZ
 40
0.0708661417322835
  9
$DIMEXO
 40
0.0625
  9
$DIMDLI
 40
0.38
  9
$DIMRND
 40
0.0
  9
$DIMDLE
 40
0.0
  9
$DIMEXE
 40
0.18
  9
$DIMTP
 40
0.0
  9
$DIMTM
 40
0.0
  9
$DIMTXT
 40
0.3048000037670135
  9
$DIMCEN
 40
0.09
  9
$DIMTSZ
 40
0.0
  9
$DIMTOL
 70
     0
  9
$DIMLIM
 70
     0
  9
$DIMTIH
 70
     1
  9
$DIMTOH
 70
     1
  9
$DIMSE1
 70
     0
  9
$DIMSE2
 70
     0
  9
$DIMTAD
 70
     0
  9
$DIMZIN
 70
     0
  9
$DIMBLK
  1

  9
$DIMASO
 70
     1
  9
$DIMSHO
 70
     1
  9
$DIMPOST
  1

  9
$DIMAPOST
  1

  9
$DIMALT
 70
     0
  9
$DIMALTD
 70
     2
  9
$DIMALTF
 40
25.4
  9
$DIMLFAC
 40
1.0
  9
$DIMTOFL
 70
     0
  9
$DIMTVP
 40
0.0
  9
$DIMTIX
 70
     0
  9
$DIMSOXD
 70
     0
  9
$DIMSAH
 70
     0
  9
$DIMBLK1
  1

  9
$DIMBLK2
  1

  9
$DIMSTYLE
  2
Standard
  9
$DIMCLRD
 70
     0
  9
$DIMCLRE
 70
     0
  9
$DIMCLRT
 70
     0
  9
$DIMTFAC
 40
1.0
  9
$DIMGAP
 40
0.09
  9
$DIMJUST
 70
     0
  9
$DIMSD1
 70
     0
  9
$DIMSD2
 70
     0
  9
$DIMTOLJ
 70
     1
  9
$DIMTZIN
 70
     0
  9
$DIMALTZ
 70
     0
  9
$DIMALTTZ
 70
     0
  9
$DIMUPT
 70
     0
  9
$DIMDEC
 70
     4
  9
$DIMTDEC
 70
     4
  9
$DIMALTU
 70
     2
  9
$DIMALTTD
 70
     2
  9
$DIMTXSTY
  7
Standard
  9
$DIMAUNIT
 70
     0
  9
$DIMADEC
 70
     0
  9
$DIMALTRND
 40
0.0
  9
$DIMAZIN
 70
     0
  9
$DIMDSEP
 70
    46
  9
$DIMATFIT
 70
     3
  9
$DIMFRAC
 70
     0
  9
$DIMLDRBLK
  1

  9
$DIMLUNIT
 70
     2
  9
$DIMLWD
 70
    -2
  9
$DIMLWE
 70
    -2
  9
$DIMTMOVE
 70
     0
  9
$LUNITS
 70
     2
  9
$LUPREC
 70
     4
  9
$SKETCHINC
 40
0.1
  9
$FILLETRAD
 40
0.0
  9
$AUNITS
 70
     0
  9
$AUPREC
 70
     0
  9
$MENU
  1
.
  9
$ELEVATION
 40
0.0
  9
$PELEVATION
 40
0.0
  9
$THICKNESS
 40
0.0
  9
$LIMCHECK
 70
     0
  9
$CHAMFERA
 40
0.0
  9
$CHAMFERB
 40
0.0
  9
$CHAMFERC
 40
0.0
  9
$CHAMFERD
 40
0.0
  9
$SKPOLY
 70
     0
  9
$TDCREATE
 40
2454846.696709525
  9
$TDUCREATE
 40
2454847.030042859
  9
$TDUPDATE
 40
2454846.696709525
  9
$TDUUPDATE
 40
2454847.030042859
  9
$TDINDWG
 40
0.0000195255
  9
$TDUSRTIMER
 40
0.0000195255
  9
$USRTIMER
 70
     1
  9
$ANGBASE
 50
0.0
  9
$ANGDIR
 70
     0
  9
$PDMODE
 70
     0
  9
$PDSIZE
 40
0.0
  9
$PLINEWID
 40
0.0
  9
$SPLFRAME
 70
     0
  9
$SPLINETYPE
 70
     6
  9
$SPLINESEGS
 70
     8
  9
$HANDSEED
  5
44C
  9
$SURFTAB1
 70
     6
  9
$SURFTAB2
 70
     6
  9
$SURFTYPE
 70
     6
  9
$SURFU
 70
     6
  9
$SURFV
 70
     6
  9
$UCSBASE
  2

  9
$UCSNAME
  2

  9
$UCSORG
 10
0.0
 20
0.0
 30
0.0
  9
$UCSXDIR
 10
1.0
 20
0.0
 30
0.0
  9
$UCSYDIR
 10
0.0
 20
1.0
 30
0.0
  9
$UCSORTHOREF
  2

  9
$UCSORTHOVIEW
 70
     0
  9
$UCSORGTOP
 10
0.0
 20
0.0
 30
0.0
  9
$UCSORGBOTTOM
 10
0.0
 20
0.0
 30
0.0
  9
$UCSORGLEFT
 10
0.0
 20
0.0
 30
0.0
  9
$UCSORGRIGHT
 10
0.0
 20
0.0
 30
0.0
  9
$UCSORGFRONT
 10
0.0
 20
0.0
 30
0.0
  9
$UCSORGBACK
 10
0.0
 20
0.0
 30
0.0
  9
$PUCSBASE
  2

  9
$PUCSNAME
  2

  9
$PUCSORG
 10
0.0
 20
0.0
 30
0.0
  9
$PUCSXDIR
 10
1.0
 20
0.0
 30
0.0
  9
$PUCSYDIR
 10
0.0
 20
1.0
 30
0.0
  9
$PUCSORTHOREF
  2

  9
$PUCSORTHOVIEW
 70
     0
  9
$PUCSORGTOP
 10
0.0
 20
0.0
 30
0.0
  9
$PUCSORGBOTTOM
 10
0.0
 20
0.0
 30
0.0
  9
$PUCSORGLEFT
 10
0.0
 20
0.0
 30
0.0
  9
$PUCSORGRIGHT
 10
0.0
 20
0.0
 30
0.0
  9
$PUCSORGFRONT
 10
0.0
 20
0.0
 30
0.0
  9
$PUCSORGBACK
 10
0.0
 20
0.0
 30
0.0
  9
$USERI1
 70
     0
  9
$USERI2
 70
     0
  9
$USERI3
 70
     0
  9
$USERI4
 70
     0
  9
$USERI5
 70
     0
  9
$USERR1
 40
0.0
  9
$USERR2
 40
0.0
  9
$USERR3
 40
0.0
  9
$USERR4
 40
0.0
  9
$USERR5
 40
0.0
  9
$WORLDVIEW
 70
     1
  9
$SHADEDGE
 70
     3
  9
$SHADEDIF
 70
    70
  9
$TILEMODE
 70
     1
  9
$MAXACTVP
 70
    64
  9
$PINSBASE
 10
0.0
 20
0.0
 30
0.0
  9
$PLIMCHECK
 70
     0
  9
$PEXTMIN
 10
0.0
 20
0.0
 30
0.0
  9
$PEXTMAX
 10
5.5
 20
4.25
 30
0.0
  9
$PLIMMIN
 10
0.0
 20
0.0
  9
$PLIMMAX
 10
5.5
 20
4.25
  9
$UNITMODE
 70
     0
  9
$VISRETAIN
 70
     1
  9
$PLINEGEN
 70
     0
  9
$PSLTSCALE
 70
     1
  9
$TREEDEPTH
 70
  3020
  9
$CMLSTYLE
  2
Standard
  9
$CMLJUST
 70
     0
  9
$CMLSCALE
 40
1.0
  9
$PROXYGRAPHICS
 70
     1
  9
$MEASUREMENT
 70
     0
  9
$CELWEIGHT
370
    -1
  9
$ENDCAPS
280
     0
  9
$JOINSTYLE
280
     0
  9
$LWDISPLAY
290
     0
  9
$INSUNITS
 70
     0
  9
$HYPERLINKBASE
  1

  9
$STYLESHEET
  1

  9
$XEDIT
290
     1
  9
$CEPSNTYPE
380
     0
  9
$PSTYLEMODE
290
     1
  9
$FINGERPRINTGUID
  2
{86EA69AA-DFAA-4264-B5E8-4795FAE797D6}
  9
$VERSIONGUID
  2
{814C65DA-B448-4DBF-90CB-961DD2E590B9}
  9
$EXTNAMES
290
     1
  9
$PSVPSCALE
 40
0.0
  9
$OLESTARTUP
290
     0
  0
ENDSEC
  0
SECTION
  2
CLASSES
  0
CLASS
  1
ACDBDICTIONARYWDFLT
  2
AcDbDictionaryWithDefault
  3
ObjectDBX Classes
 90
        0
280
     0
281
     0
  0
CLASS
  1
MATERIAL
  2
AcDbMaterial
  3
ObjectDBX Classes
 90
     1024
280
     0
281
     0
  0
CLASS
  1
VISUALSTYLE
  2
AcDbVisualStyle
  3
ObjectDBX Classes
 90
     4095
280
     0
281
     0
  0
CLASS
  1
TABLESTYLE
  2
AcDbTableStyle
  3
ObjectDBX Classes
 90
     4095
280
     0
281
     0
  0
CLASS
  1
DICTIONARYVAR
  2
AcDbDictionaryVar
  3
ObjectDBX Classes
 90
        0
280
     0
281
     0
  0
CLASS
  1
ACDBPLACEHOLDER
  2
AcDbPlaceHolder
  3
ObjectDBX Classes
 90
        0
280
     0
281
     0
  0
CLASS
  1
LAYOUT
  2
AcDbLayout
  3
ObjectDBX Classes
 90
        0
280
     0
281
     0
  0
ENDSEC
  0
SECTION
  2
TABLES
  0
TABLE
  2
VPORT
  5
8
330
0
100
AcDbSymbolTable
 70
     1
  0
VPORT
  5
28
330
8
100
AcDbSymbolTableRecord
100
AcDbViewportTableRecord
  2
*Active
 70
     0
 10
0.0
 20
0.0
 11
1.0
 21
1.0
 12
2.75
 22
2.125
 13
0.0
 23
0.0
 14
1.0
 24
1.0
 15
0.0
 25
0.0
 16
0.0
 26
0.0
 36
1.0
 17
0.0
 27
0.0
 37
0.0
 40
4.25
 41
1.294117647058823
 42
50.0
 43
0.0
 44
0.0
 50
0.0
 51
0.0
 71
     0
 72
   100
 73
     1
 74
     1
 75
     0
 76
     0
 77
     0
 78
     0
281
     0
 65
     1
110
0.0
120
0.0
130
0.0
111
1.0
121
0.0
131
0.0
112
0.0
122
1.0
132
0.0
 79
     0
146
0.0
  0
ENDTAB
  0
TABLE
  2
LTYPE
  5
5
330
0
100
AcDbSymbolTable
 70
    59
  0
LTYPE
  5
29
330
5
100
AcDbSymbolTableRecord
100
AcDbLinetypeTableRecord
  2
ByBlock
 70
     0
  3

 72
    65
 73
     0
 40
0.0
  0
LTYPE
  5
2A
330
5
100
AcDbSymbolTableRecord
100
AcDbLinetypeTableRecord
  2
ByLayer
 70
     0
  3

 72
    65
 73
     0
 40
0.0
  0
LTYPE
  5
2B
330
5
100
AcDbSymbolTableRecord
100
AcDbLinetypeTableRecord
  2
Continuous
 70
     0
  3
Solid line
 72
    65
 73
     0
 40
0.0
  0
LTYPE
  5
40
330
5
100
AcDbSymbolTableRecord
100
AcDbLinetypeTableRecord
  2
BY_STANDARD
 70
     0
  3
By Standard ____________    ____    ____   _
 72
    65
 73
     6
 40
1.240299999999999
 49
0.6614
 74
     0
 49
-0.0827
 74
     0
 49
0.1654
 74
     0
 49
-0.0827
 74
     0
 49
0.1654
 74
     0
 49
-0.0827
 74
     0
  0
LTYPE
  5
41
330
5
100
AcDbSymbolTableRecord
100
AcDbLinetypeTableRecord
  2
CHAIN
 70
     0
  3
Chain ____ _ ____ _ ____ _ ____ _ ____ _ ____
 72
    65
 73
     4
 40
0.7087
 49
0.4724000000000001
 74
     0
 49
-0.0591
 74
     0
 49
0.1181
 74
     0
 49
-0.0591
 74
     0
  0
LTYPE
  5
42
330
5
100
AcDbSymbolTableRecord
100
AcDbLinetypeTableRecord
  2
DASH_DOT
 70
     0
  3
Dash dot __ . __ . __ . __ . __ . __ . __ . __
 72
    65
 73
     4
 40
0.37
 49
0.24
 74
     0
 49
-0.06
 74
     0
 49
0.01
 74
     0
 49
-0.06
 74
     0
  0
LTYPE
  5
43
330
5
100
AcDbSymbolTableRecord
100
AcDbLinetypeTableRecord
  2
DOUBLE_DASH_DOT
 70
     0
  3
Double-Dash Dot __ __ . __ __ . __ __ . __ _
 72
    65
 73
     6
 40
0.4398
 49
0.24
 74
     0
 49
-0.06
 74
     0
 49
0.0098
 74
     0
 49
-0.06
 74
     0
 49
0.01
 74
     0
 49
-0.06
 74
     0
  0
LTYPE
  5
44
330
5
100
AcDbSymbolTableRecord
100
AcDbLinetypeTableRecord
  2
DASH_TRIPLE_DOT
 70
     0
  3
Dash Triple-Dot _ . . . _ . . . _ . . . _
 72
    65
 73
     8
 40
0.51
 49
0.24
 74
     0
 49
-0.06
 74
     0
 49
0.01
 74
     0
 49
-0.06
 74
     0
 49
0.01
 74
     0
 49
-0.06
 74
     0
 49
0.01
 74
     0
 49
-0.06
 74
     0
  0
LTYPE
  5
45
330
5
100
AcDbSymbolTableRecord
100
AcDbLinetypeTableRecord
  2
DASHED
 70
     0
  3
Dashed __ __ __ __ __ __ __ __ __ __ __ __ __ _
 72
    65
 73
     2
 40
0.2067
 49
0.1654
 74
     0
 49
-0.0413
 74
     0
  0
LTYPE
  5
46
330
5
100
AcDbSymbolTableRecord
100
AcDbLinetypeTableRecord
  2
DASH_DOUBLE_DOT
 70
     0
  3
Dash Double-Dot __ . . __ . . __ . . __ . .
 72
    65
 73
     6
 40
0.4398
 49
0.24
 74
     0
 49
-0.06
 74
     0
 49
0.0098
 74
     0
 49
-0.06
 74
     0
 49
0.01
 74
     0
 49
-0.06
 74
     0
  0
LTYPE
  5
47
330
5
100
AcDbSymbolTableRecord
100
AcDbLinetypeTableRecord
  2
DASHED_SPACE
 70
     0
  3
Dashed Space __ __ __ __ __ __ __ __ __ __ __ _
 72
    65
 73
     2
 40
0.2067
 49
0.1654
 74
     0
 49
-0.0413
 74
     0
  0
LTYPE
  5
48
330
5
100
AcDbSymbolTableRecord
100
AcDbLinetypeTableRecord
  2
DOTTED
 70
     0
  3
Dotted . . . . . . . . . . . . . . . . . . . . 
 72
    65
 73
     2
 40
0.0482
 49
0.0069
 74
     0
 49
-0.0413
 74
     0
  0
LTYPE
  5
49
330
5
100
AcDbSymbolTableRecord
100
AcDbLinetypeTableRecord
  2
DOUBLE_DASH_CHAIN
 70
     0
  3
Double-Dash Chain ______  __  __  ______  __  _
 72
    65
 73
     6
 40
1.240299999999999
 49
0.6614
 74
     0
 49
-0.0827
 74
     0
 49
0.1654
 74
     0
 49
-0.0827
 74
     0
 49
0.1654
 74
     0
 49
-0.0827
 74
     0
  0
LTYPE
  5
4B
330
5
100
AcDbSymbolTableRecord
100
AcDbLinetypeTableRecord
  2
DOUBLE_DASH_DOUBLE_DOT
 70
     0
  3
Double-Dash Double-dot _ _ . . _ _ . . _
 72
    65
 73
     8
 40
0.7400000000000001
 49
0.24
 74
     0
 49
-0.06
 74
     0
 49
0.24
 74
     0
 49
-0.06
 74
     0
 49
0.01
 74
     0
 49
-0.06
 74
     0
 49
0.01
 74
     0
 49
-0.06
 74
     0
  0
LTYPE
  5
4C
330
5
100
AcDbSymbolTableRecord
100
AcDbLinetypeTableRecord
  2
DOUBLE_DASH_TRIPLE_DOT
 70
     0
  3
Double Dash Triple Dot __ __ . . . __ __ . .
 72
    65
 73
    10
 40
0.8100000000000001
 49
0.24
 74
     0
 49
-0.06
 74
     0
 49
0.24
 74
     0
 49
-0.06
 74
     0
 49
0.01
 74
     0
 49
-0.06
 74
     0
 49
0.01
 74
     0
 49
-0.06
 74
     0
 49
0.01
 74
     0
 49
-0.06
 74
     0
  0
LTYPE
  5
4D
330
5
100
AcDbSymbolTableRecord
100
AcDbLinetypeTableRecord
  2
LONG_DASH_DOTTED
 70
     0
  3
Long Dash Dotted ____ . ____ . ____ . ____ . _
 72
    65
 73
     4
 40
0.3543
 49
0.2362
 74
     0
 49
-0.0295
 74
     0
 49
0.0591
 74
     0
 49
-0.0295
 74
     0
  0
LTYPE
  5
4E
330
5
100
AcDbSymbolTableRecord
100
AcDbLinetypeTableRecord
  2
LONG_DASH_DOUBLE_DOT
 70
     0
  3
Long Dash Double Dot ________  .  .  ________  
 72
    65
 73
     6
 40
0.6799999999999999
 49
0.48
 74
     0
 49
-0.06
 74
     0
 49
0.01
 74
     0
 49
-0.06
 74
     0
 49
0.01
 74
     0
 49
-0.06
 74
     0
  0
LTYPE
  5
4F
330
5
100
AcDbSymbolTableRecord
100
AcDbLinetypeTableRecord
  2
LONG_DASH_TRIPLE_DOT
 70
     0
  3
Long Dash Triple Dot ____ ... ____ ... ____
 72
    65
 73
     8
 40
0.3689
 49
0.2362
 74
     0
 49
-0.0295
 74
     0
 49
0.0049
 74
     0
 49
-0.0295
 74
     0
 49
0.0049
 74
     0
 49
-0.0295
 74
     0
 49
0.0049
 74
     0
 49
-0.0295
 74
     0
  0
LTYPE
  5
50
330
5
100
AcDbSymbolTableRecord
100
AcDbLinetypeTableRecord
  2
BORDER
 70
     0
  3
Border __ __ . __ __ . __ __ . __ __ . __ __ .
 72
    65
 73
     6
 40
1.75
 49
0.5
 74
     0
 49
-0.25
 74
     0
 49
0.5
 74
     0
 49
-0.25
 74
     0
 49
0.0
 74
     0
 49
-0.25
 74
     0
  0
LTYPE
  5
51
330
5
100
AcDbSymbolTableRecord
100
AcDbLinetypeTableRecord
  2
BORDER2
 70
     0
  3
Border (.5x) __.__.__.__.__.__.__.__.__.__.__.
 72
    65
 73
     6
 40
0.875
 49
0.25
 74
     0
 49
-0.125
 74
     0
 49
0.25
 74
     0
 49
-0.125
 74
     0
 49
0.0
 74
     0
 49
-0.125
 74
     0
  0
LTYPE
  5
52
330
5
100
AcDbSymbolTableRecord
100
AcDbLinetypeTableRecord
  2
BORDERX2
 70
     0
  3
Border (2x) ____  ____  .  ____  ____  .  ___
 72
    65
 73
     6
 40
3.5
 49
1.0
 74
     0
 49
-0.5
 74
     0
 49
1.0
 74
     0
 49
-0.5
 74
     0
 49
0.0
 74
     0
 49
-0.5
 74
     0
  0
LTYPE
  5
53
330
5
100
AcDbSymbolTableRecord
100
AcDbLinetypeTableRecord
  2
CENTER
 70
     0
  3
Center ____ _ ____ _ ____ _ ____ _ ____ _ ____
 72
    65
 73
     4
 40
2.0
 49
1.25
 74
     0
 49
-0.25
 74
     0
 49
0.25
 74
     0
 49
-0.25
 74
     0
  0
LTYPE
  5
54
330
5
100
AcDbSymbolTableRecord
100
AcDbLinetypeTableRecord
  2
CENTER2
 70
     0
  3
Center (.5x) ___ _ ___ _ ___ _ ___ _ ___ _ ___
 72
    65
 73
     4
 40
1.125
 49
0.75
 74
     0
 49
-0.125
 74
     0
 49
0.125
 74
     0
 49
-0.125
 74
     0
  0
LTYPE
  5
55
330
5
100
AcDbSymbolTableRecord
100
AcDbLinetypeTableRecord
  2
CENTERX2
 70
     0
  3
Center (2x) ________  __  ________  __  _____
 72
    65
 73
     4
 40
4.0
 49
2.5
 74
     0
 49
-0.5
 74
     0
 49
0.5
 74
     0
 49
-0.5
 74
     0
  0
LTYPE
  5
56
330
5
100
AcDbSymbolTableRecord
100
AcDbLinetypeTableRecord
  2
DASHDOT2
 70
     0
  3
Dash dot (.5x) _._._._._._._._._._._._._._._.
 72
    65
 73
     4
 40
0.5
 49
0.25
 74
     0
 49
-0.125
 74
     0
 49
0.0
 74
     0
 49
-0.125
 74
     0
  0
LTYPE
  5
57
330
5
100
AcDbSymbolTableRecord
100
AcDbLinetypeTableRecord
  2
DASHDOTX2
 70
     0
  3
Dash dot (2x) ____  .  ____  .  ____  .  ___
 72
    65
 73
     4
 40
2.0
 49
1.0
 74
     0
 49
-0.5
 74
     0
 49
0.0
 74
     0
 49
-0.5
 74
     0
  0
LTYPE
  5
59
330
5
100
AcDbSymbolTableRecord
100
AcDbLinetypeTableRecord
  2
DASHED2
 70
     0
  3
Dashed (.5x) _ _ _ _ _ _ _ _ _ _ _ _ _ _ _ _ _
 72
    65
 73
     2
 40
0.375
 49
0.25
 74
     0
 49
-0.125
 74
     0
  0
LTYPE
  5
5A
330
5
100
AcDbSymbolTableRecord
100
AcDbLinetypeTableRecord
  2
DASHEDX2
 70
     0
  3
Dashed (2x) ____  ____  ____  ____  ____  ___
 72
    65
 73
     2
 40
1.5
 49
1.0
 74
     0
 49
-0.5
 74
     0
  0
LTYPE
  5
5B
330
5
100
AcDbSymbolTableRecord
100
AcDbLinetypeTableRecord
  2
DIVIDE
 70
     0
  3
Divide ____ . . ____ . . ____ . . ____ . . ____
 72
    65
 73
     6
 40
1.25
 49
0.5
 74
     0
 49
-0.25
 74
     0
 49
0.0
 74
     0
 49
-0.25
 74
     0
 49
0.0
 74
     0
 49
-0.25
 74
     0
  0
LTYPE
  5
5C
330
5
100
AcDbSymbolTableRecord
100
AcDbLinetypeTableRecord
  2
DIVIDE2
 70
     0
  3
Divide (.5x) __..__..__..__..__..__..__..__.._
 72
    65
 73
     6
 40
0.625
 49
0.25
 74
     0
 49
-0.125
 74
     0
 49
0.0
 74
     0
 49
-0.125
 74
     0
 49
0.0
 74
     0
 49
-0.125
 74
     0
  0
LTYPE
  5
5D
330
5
100
AcDbSymbolTableRecord
100
AcDbLinetypeTableRecord
  2
DIVIDEX2
 70
     0
  3
Divide (2x) ________  .  .  ________  .  .  _
 72
    65
 73
     6
 40
2.5
 49
1.0
 74
     0
 49
-0.5
 74
     0
 49
0.0
 74
     0
 49
-0.5
 74
     0
 49
0.0
 74
     0
 49
-0.5
 74
     0
  0
LTYPE
  5
5E
330
5
100
AcDbSymbolTableRecord
100
AcDbLinetypeTableRecord
  2
DOT
 70
     0
  3
Dot . . . . . . . . . . . . . . . . . . . . . .
 72
    65
 73
     2
 40
0.25
 49
0.0
 74
     0
 49
-0.25
 74
     0
  0
LTYPE
  5
5F
330
5
100
AcDbSymbolTableRecord
100
AcDbLinetypeTableRecord
  2
DOT2
 70
     0
  3
Dot (.5x) .....................................
 72
    65
 73
     2
 40
0.125
 49
0.0
 74
     0
 49
-0.125
 74
     0
  0
LTYPE
  5
60
330
5
100
AcDbSymbolTableRecord
100
AcDbLinetypeTableRecord
  2
DOTX2
 70
     0
  3
Dot (2x) .  .  .  .  .  .  .  .  .  .  .  .  . 
 72
    65
 73
     2
 40
0.5
 49
0.0
 74
     0
 49
-0.5
 74
     0
  0
LTYPE
  5
61
330
5
100
AcDbSymbolTableRecord
100
AcDbLinetypeTableRecord
  2
HIDDEN
 70
     0
  3
Hidden __ __ __ __ __ __ __ __ __ __ __ __ __ _
 72
    65
 73
     2
 40
0.375
 49
0.25
 74
     0
 49
-0.125
 74
     0
  0
LTYPE
  5
62
330
5
100
AcDbSymbolTableRecord
100
AcDbLinetypeTableRecord
  2
HIDDEN2
 70
     0
  3
Hidden (.5x) _ _ _ _ _ _ _ _ _ _ _ _ _ _ _ _ _
 72
    65
 73
     2
 40
0.1875
 49
0.125
 74
     0
 49
-0.0625
 74
     0
  0
LTYPE
  5
63
330
5
100
AcDbSymbolTableRecord
100
AcDbLinetypeTableRecord
  2
HIDDENX2
 70
     0
  3
Hidden (2x) ____ ____ ____ ____ ____ ____ ____
 72
    65
 73
     2
 40
0.75
 49
0.5
 74
     0
 49
-0.25
 74
     0
  0
LTYPE
  5
64
330
5
100
AcDbSymbolTableRecord
100
AcDbLinetypeTableRecord
  2
PHANTOM
 70
     0
  3
Phantom ______  __  __  ______  __  __  ______
 72
    65
 73
     6
 40
2.5
 49
1.25
 74
     0
 49
-0.25
 74
     0
 49
0.25
 74
     0
 49
-0.25
 74
     0
 49
0.25
 74
     0
 49
-0.25
 74
     0
  0
LTYPE
  5
65
330
5
100
AcDbSymbolTableRecord
100
AcDbLinetypeTableRecord
  2
PHANTOM2
 70
     0
  3
Phantom (.5x) ___ _ _ ___ _ _ ___ _ _ ___ _ _
 72
    65
 73
     6
 40
1.25
 49
0.625
 74
     0
 49
-0.125
 74
     0
 49
0.125
 74
     0
 49
-0.125
 74
     0
 49
0.125
 74
     0
 49
-0.125
 74
     0
  0
LTYPE
  5
66
330
5
100
AcDbSymbolTableRecord
100
AcDbLinetypeTableRecord
  2
PHANTOMX2
 70
     0
  3
Phantom (2x) ____________    ____    ____   _
 72
    65
 73
     6
 40
5.0
 49
2.5
 74
     0
 49
-0.5
 74
     0
 49
0.5
 74
     0
 49
-0.5
 74
     0
 49
0.5
 74
     0
 49
-0.5
 74
     0
  0
LTYPE
  5
67
330
5
100
AcDbSymbolTableRecord
100
AcDbLinetypeTableRecord
  2
ACAD_ISO02W100
 70
     0
  3
ISO dash __ __ __ __ __ __ __ __ __ __ __ __ __
 72
    65
 73
     2
 40
0.59
 49
0.47
 74
     0
 49
-0.12
 74
     0
  0
LTYPE
  5
68
330
5
100
AcDbSymbolTableRecord
100
AcDbLinetypeTableRecord
  2
ACAD_ISO03W100
 70
     0
  3
ISO dash space __    __    __    __    __    __
 72
    65
 73
     2
 40
1.179999999999999
 49
0.47
 74
     0
 49
-0.71
 74
     0
  0
LTYPE
  5
69
330
5
100
AcDbSymbolTableRecord
100
AcDbLinetypeTableRecord
  2
ACAD_ISO04W100
 70
     0
  3
ISO long-dash dot ____ . ____ . ____ . ____ . _
 72
    65
 73
     4
 40
1.179999999999999
 49
0.9399999999999998
 74
     0
 49
-0.12
 74
     0
 49
0.0
 74
     0
 49
-0.12
 74
     0
  0
LTYPE
  5
6A
330
5
100
AcDbSymbolTableRecord
100
AcDbLinetypeTableRecord
  2
ACAD_ISO05W100
 70
     0
  3
ISO long-dash double-dot ____ .. ____ .. ____ .
 72
    65
 73
     6
 40
1.299999999999999
 49
0.9399999999999998
 74
     0
 49
-0.12
 74
     0
 49
0.0
 74
     0
 49
-0.12
 74
     0
 49
0.0
 74
     0
 49
-0.12
 74
     0
  0
LTYPE
  5
6B
330
5
100
AcDbSymbolTableRecord
100
AcDbLinetypeTableRecord
  2
ACAD_ISO06W100
 70
     0
  3
ISO long-dash triple-dot ____ ... ____ ... ____
 72
    65
 73
     8
 40
1.419999999999999
 49
0.9399999999999998
 74
     0
 49
-0.12
 74
     0
 49
0.0
 74
     0
 49
-0.12
 74
     0
 49
0.0
 74
     0
 49
-0.12
 74
     0
 49
0.0
 74
     0
 49
-0.12
 74
     0
  0
LTYPE
  5
6C
330
5
100
AcDbSymbolTableRecord
100
AcDbLinetypeTableRecord
  2
ACAD_ISO07W100
 70
     0
  3
ISO dot . . . . . . . . . . . . . . . . . . . .
 72
    65
 73
     2
 40
0.12
 49
0.0
 74
     0
 49
-0.12
 74
     0
  0
LTYPE
  5
6D
330
5
100
AcDbSymbolTableRecord
100
AcDbLinetypeTableRecord
  2
ACAD_ISO08W100
 70
     0
  3
ISO long-dash short-dash ____ __ ____ __ ____ _
 72
    65
 73
     4
 40
0.95
 49
0.47
 74
     0
 49
-0.12
 74
     0
 49
0.24
 74
     0
 49
-0.12
 74
     0
  0
LTYPE
  5
6E
330
5
100
AcDbSymbolTableRecord
100
AcDbLinetypeTableRecord
  2
ACAD_ISO09W100
 70
     0
  3
ISO long-dash double-short-dash ____ __ __ ____
 72
    65
 73
     6
 40
1.31
 49
0.47
 74
     0
 49
-0.12
 74
     0
 49
0.24
 74
     0
 49
-0.12
 74
     0
 49
0.24
 74
     0
 49
-0.12
 74
     0
  0
LTYPE
  5
6F
330
5
100
AcDbSymbolTableRecord
100
AcDbLinetypeTableRecord
  2
ACAD_ISO10W100
 70
     0
  3
ISO dash dot __ . __ . __ . __ . __ . __ . __ .
 72
    65
 73
     4
 40
0.71
 49
0.47
 74
     0
 49
-0.12
 74
     0
 49
0.0
 74
     0
 49
-0.12
 74
     0
  0
LTYPE
  5
70
330
5
100
AcDbSymbolTableRecord
100
AcDbLinetypeTableRecord
  2
ACAD_ISO11W100
 70
     0
  3
ISO double-dash dot __ __ . __ __ . __ __ . __ 
 72
    65
 73
     6
 40
1.299999999999999
 49
0.47
 74
     0
 49
-0.12
 74
     0
 49
0.47
 74
     0
 49
-0.12
 74
     0
 49
0.0
 74
     0
 49
-0.12
 74
     0
  0
LTYPE
  5
71
330
5
100
AcDbSymbolTableRecord
100
AcDbLinetypeTableRecord
  2
ACAD_ISO12W100
 70
     0
  3
ISO dash double-dot __ . . __ . . __ . . __ . .
 72
    65
 73
     6
 40
0.8299999999999998
 49
0.47
 74
     0
 49
-0.12
 74
     0
 49
0.0
 74
     0
 49
-0.12
 74
     0
 49
0.0
 74
     0
 49
-0.12
 74
     0
  0
LTYPE
  5
72
330
5
100
AcDbSymbolTableRecord
100
AcDbLinetypeTableRecord
  2
ACAD_ISO13W100
 70
     0
  3
ISO double-dash double-dot __ __ . . __ __ . . 
 72
    65
 73
     8
 40
1.419999999999999
 49
0.47
 74
     0
 49
-0.12
 74
     0
 49
0.47
 74
     0
 49
-0.12
 74
     0
 49
0.0
 74
     0
 49
-0.12
 74
     0
 49
0.0
 74
     0
 49
-0.12
 74
     0
  0
LTYPE
  5
73
330
5
100
AcDbSymbolTableRecord
100
AcDbLinetypeTableRecord
  2
ACAD_ISO14W100
 70
     0
  3
ISO dash triple-dot __ . . . __ . . . __ . . . 
 72
    65
 73
     8
 40
0.95
 49
0.47
 74
     0
 49
-0.12
 74
     0
 49
0.0
 74
     0
 49
-0.12
 74
     0
 49
0.0
 74
     0
 49
-0.12
 74
     0
 49
0.0
 74
     0
 49
-0.12
 74
     0
  0
LTYPE
  5
74
330
5
100
AcDbSymbolTableRecord
100
AcDbLinetypeTableRecord
  2
ACAD_ISO15W100
 70
     0
  3
ISO double-dash triple-dot __ __ . . . __ __ . 
 72
    65
 73
    10
 40
1.539999999999999
 49
0.47
 74
     0
 49
-0.12
 74
     0
 49
0.47
 74
     0
 49
-0.12
 74
     0
 49
0.0
 74
     0
 49
-0.12
 74
     0
 49
0.0
 74
     0
 49
-0.12
 74
     0
 49
0.0
 74
     0
 49
-0.12
 74
     0
  0
LTYPE
  5
77
330
5
100
AcDbSymbolTableRecord
100
AcDbLinetypeTableRecord
  2
FENCELINE1
 70
     0
  3
Fenceline circle ----0-----0----0-----0----0---
 72
    65
 73
     4
 40
1.45
 49
0.25
 74
     0
 49
-0.1
 74
     4
 75
   133
340
76
 46
0.1
 50
0.0
 44
-0.1
 45
0.0
 49
-0.1
 74
     0
 49
1.0
 74
     0
  0
LTYPE
  5
78
330
5
100
AcDbSymbolTableRecord
100
AcDbLinetypeTableRecord
  2
FENCELINE2
 70
     0
  3
Fenceline square ----[]-----[]----[]-----[]----
 72
    65
 73
     4
 40
1.45
 49
0.25
 74
     0
 49
-0.1
 74
     4
 75
   132
340
76
 46
0.1
 50
0.0
 44
-0.1
 45
0.0
 49
-0.1
 74
     0
 49
1.0
 74
     0
  0
LTYPE
  5
79
330
5
100
AcDbSymbolTableRecord
100
AcDbLinetypeTableRecord
  2
TRACKS
 70
     0
  3
Tracks -|-|-|-|-|-|-|-|-|-|-|-|-|-|-|-|-|-|-|-|
 72
    65
 73
     2
 40
0.3
 49
0.15
 74
     4
 75
   130
340
76
 46
0.25
 50
0.0
 44
0.0
 45
0.0
 49
0.15
 74
     0
  0
LTYPE
  5
7A
330
5
100
AcDbSymbolTableRecord
100
AcDbLinetypeTableRecord
  2
BATTING
 70
     0
  3
Batting SSSSSSSSSSSSSSSSSSSSSSSSSSSSSSSSSSSSSSS
 72
    65
 73
     4
 40
0.4001000000000001
 49
0.0001
 74
     0
 49
-0.1
 74
     4
 75
   134
340
76
 46
0.1
 50
0.0
 44
-0.1
 45
0.0
 49
-0.2
 74
     4
 75
   134
340
76
 46
0.1
 50
180.0
 44
0.1
 45
0.0
 49
-0.1
 74
     0
  0
LTYPE
  5
7B
330
5
100
AcDbSymbolTableRecord
100
AcDbLinetypeTableRecord
  2
HOT_WATER_SUPPLY
 70
     0
  3
Hot water supply ---- HW ---- HW ---- HW ----
 72
    65
 73
     3
 40
0.9
 49
0.5
 74
     0
 49
-0.2
 74
     2
 75
     0
340
26
 46
0.1
 50
0.0
 44
-0.1
 45
-0.05
  9
HW
 49
-0.2
 74
     0
  0
LTYPE
  5
7C
330
5
100
AcDbSymbolTableRecord
100
AcDbLinetypeTableRecord
  2
GAS_LINE
 70
     0
  3
Gas line ----GAS----GAS----GAS----GAS----GAS---
 72
    65
 73
     3
 40
0.95
 49
0.5
 74
     0
 49
-0.2
 74
     2
 75
     0
340
26
 46
0.1
 50
0.0
 44
-0.1
 45
-0.05
  9
GAS
 49
-0.25
 74
     0
  0
LTYPE
  5
7D
330
5
100
AcDbSymbolTableRecord
100
AcDbLinetypeTableRecord
  2
ZIGZAG
 70
     0
  3
Zig zag /\/\/\/\/\/\/\/\/\/\/\/\/\/\/\/\/\/\/\/
 72
    65
 73
     4
 40
0.8001000000000001
 49
0.0001
 74
     0
 49
-0.2
 74
     4
 75
   131
340
76
 46
0.2
 50
0.0
 44
-0.2
 45
0.0
 49
-0.4
 74
     4
 75
   131
340
76
 46
0.2
 50
180.0
 44
0.2
 45
0.0
 49
-0.2
 74
     0
  0
ENDTAB
  0
TABLE
  2
LAYER
  5
2
330
0
100
AcDbSymbolTable
 70
    25
  0
LAYER
  5
25
330
2
100
AcDbSymbolTableRecord
100
AcDbLayerTableRecord
  2
0
 70
     0
 62
     7
  6
Continuous
370
    -3
390
F
  0
LAYER
  5
81
330
2
100
AcDbSymbolTableRecord
100
AcDbLayerTableRecord
  2
Border (ANSI)
 70
     0
 62
     7
  6
Continuous
370
    70
390
F
  0
LAYER
  5
8E
330
2
100
AcDbSymbolTableRecord
100
AcDbLayerTableRecord
  2
Symbol (ANSI)
 70
     0
 62
     7
  6
Continuous
370
    25
390
F
  0
LAYER
  5
91
330
2
100
AcDbSymbolTableRecord
100
AcDbLayerTableRecord
  2
Visible (ANSI)
 70
     0
 62
     7
  6
Continuous
370
    50
390
F
  0
ENDTAB
  0
TABLE
  2
STYLE
  5
3
330
0
100
AcDbSymbolTable
 70
    11
  0
STYLE
  5
26
330
3
100
AcDbSymbolTableRecord
100
AcDbTextStyleTableRecord
  2
Standard
 70
     0
 40
0.0
 41
1.0
 50
0.0
 71
     0
 42
0.2
  3
TAHOMA.TTF
  4

1001
ACAD
1000
Tahoma
1071
      256
  0
STYLE
  5
76
330
3
100
AcDbSymbolTableRecord
100
AcDbTextStyleTableRecord
  2

 70
     1
 40
0.0
 41
1.0
 50
0.0
 71
     0
 42
0.2
  3
ltypeshp.shx
  4

  0
STYLE
  5
96
330
3
100
AcDbSymbolTableRecord
100
AcDbTextStyleTableRecord
  2
Label Text (ANSI)
 70
     0
 40
0.0
 41
1.0
 50
0.0
 71
     0
 42
0.2
  3
TAHOMA.TTF
  4

1001
ACAD
1000
Tahoma
1071
      256
  0
STYLE
  5
97
330
3
100
AcDbSymbolTableRecord
100
AcDbTextStyleTableRecord
  2
Label Text (DIN)
 70
     0
 40
0.0
 41
1.0
 50
0.0
 71
     0
 42
0.2
  3
isocpeur.ttf
  4

1001
ACAD
1000
ISOCPEUR
1071
      256
  0
STYLE
  5
98
330
3
100
AcDbSymbolTableRecord
100
AcDbTextStyleTableRecord
  2
Label Text (ISO)
 70
     0
 40
0.0
 41
1.0
 50
0.0
 71
     0
 42
0.2
  3
TAHOMA.TTF
  4

1001
ACAD
1000
Tahoma
1071
      256
  0
STYLE
  5
99
330
3
100
AcDbSymbolTableRecord
100
AcDbTextStyleTableRecord
  2
Label Text (JIS)
 70
     0
 40
0.0
 41
1.0
 50
0.0
 71
     0
 42
0.2
  3
TAHOMA.TTF
  4

1001
ACAD
1000
Tahoma
1071
      256
  0
STYLE
  5
9A
330
3
100
AcDbSymbolTableRecord
100
AcDbTextStyleTableRecord
  2
Note Text (ANSI)
 70
     0
 40
0.0
 41
1.0
 50
0.0
 71
     0
 42
0.2
  3
TAHOMA.TTF
  4

1001
ACAD
1000
Tahoma
1071
      256
  0
STYLE
  5
9B
330
3
100
AcDbSymbolTableRecord
100
AcDbTextStyleTableRecord
  2
Note Text (DIN)
 70
     0
 40
0.0
 41
1.0
 50
0.0
 71
     0
 42
0.2
  3
isocpeur.ttf
  4

1001
ACAD
1000
ISOCPEUR
1071
      256
  0
STYLE
  5
9C
330
3
100
AcDbSymbolTableRecord
100
AcDbTextStyleTableRecord
  2
Note Text (ISO)
 70
     0
 40
0.0
 41
1.0
 50
0.0
 71
     0
 42
0.2
  3
TAHOMA.TTF
  4

1001
ACAD
1000
Tahoma
1071
      256
  0
STYLE
  5
9D
330
3
100
AcDbSymbolTableRecord
100
AcDbTextStyleTableRecord
  2
Note Text (JIS)
 70
     0
 40
0.0
 41
1.0
 50
0.0
 71
     0
 42
0.2
  3
TAHOMA.TTF
  4

1001
ACAD
1000
Tahoma
1071
      256
  0
STYLE
  5
F3
330
3
100
AcDbSymbolTableRecord
100
AcDbTextStyleTableRecord
  2
Text Style29
 70
     0
 40
0.0
 41
1.0
 50
0.0
 71
     0
 42
0.2
  3
TAHOMA.TTF
  4

1001
ACAD
1000
Tahoma
1071
      256
  0
ENDTAB
  0
TABLE
  2
VIEW
  5
6
330
0
100
AcDbSymbolTable
 70
     0
  0
ENDTAB
  0
TABLE
  2
UCS
  5
7
330
0
100
AcDbSymbolTable
 70
     0
  0
ENDTAB
  0
TABLE
  2
APPID
  5
9
330
0
100
AcDbSymbolTable
 70
     1
  0
APPID
  5
27
330
9
100
AcDbSymbolTableRecord
100
AcDbRegAppTableRecord
  2
ACAD
 70
     0
  0
ENDTAB
  0
TABLE
  2
DIMSTYLE
  5
A
330
0
100
AcDbSymbolTable
 70
    17
100
AcDbDimStyleTable
 71
     0
  0
DIMSTYLE
105
3F
330
A
100
AcDbSymbolTableRecord
100
AcDbDimStyleTableRecord
  2
Standard
 70
     0
340
26
  0
DIMSTYLE
105
9E
330
A
100
AcDbSymbolTableRecord
100
AcDbDimStyleTableRecord
  2
Architectural (ANSI)
 70
     0
 40
0.5
 41
0.0984251946210861
 42
0.0625
 43
0.2362204724409449
 44
0.125
 45
0.00000001
 46
0.3937007874015748
 78
     4
 79
     3
140
0.1200000047683716
144
0.0833333333333333
147
0.031496062992126
171
     1
176
   256
177
   256
178
   256
272
     2
274
     1
276
     2
277
     4
284
    12
286
    12
340
9A
371
    -1
372
    -1
  0
DIMSTYLE
105
9F
330
A
100
AcDbSymbolTableRecord
100
AcDbDimStyleTableRecord
  2
Architectural (ANSI)$7
 70
     0
 40
0.5
 41
0.0984251946210861
 42
0.0625
 43
0.2362204724409449
 44
0.125
 45
0.00000001
 46
0.3937007874015748
 78
     4
 79
     3
140
0.1200000047683716
144
0.0833333333333333
147
0.031496062992126
171
     1
176
   256
177
   256
178
   256
272
     2
274
     1
276
     2
277
     4
284
    12
286
    12
340
9A
371
    -1
372
    -1
  0
DIMSTYLE
105
A0
330
A
100
AcDbSymbolTableRecord
100
AcDbDimStyleTableRecord
  2
Default - Fraction (ANSI)
 70
     0
 40
0.5
 41
0.0984251946210861
 42
0.0625
 43
0.2362204724409449
 44
0.125
 45
0.00000001
 46
0.3937007874015748
 78
    12
 79
     3
140
0.1200000047683716
147
0.031496062992126
171
     1
176
   256
177
   256
178
   256
272
     2
274
     1
276
     2
277
     5
284
    12
286
    12
340
9A
371
    -1
372
    -1
  0
DIMSTYLE
105
A1
330
A
100
AcDbSymbolTableRecord
100
AcDbDimStyleTableRecord
  2
Default - Fraction (ANSI)$7
 70
     0
 40
0.5
 41
0.0984251946210861
 42
0.0625
 43
0.2362204724409449
 44
0.125
 45
0.00000001
 46
0.3937007874015748
 78
    12
 79
     3
140
0.1200000047683716
147
0.031496062992126
171
     1
176
   256
177
   256
178
   256
272
     2
274
     1
276
     2
277
     5
284
    12
286
    12
340
9A
371
    -1
372
    -1
  0
DIMSTYLE
105
A2
330
A
100
AcDbSymbolTableRecord
100
AcDbDimStyleTableRecord
  2
Default - mm (ANSI)
 70
     0
 40
0.5
 41
0.0984251946210861
 42
0.063
 43
0.2362204724409449
 44
0.125
 45
0.00000001
 46
0.3937007874015748
 73
     0
140
0.1200000047683716
143
1.0
144
25.4
147
0.031496062992126
171
     1
176
   256
177
   256
178
   256
179
     1
271
     2
272
     2
274
     1
340
9A
371
    -1
372
    -1
  0
DIMSTYLE
105
A3
330
A
100
AcDbSymbolTableRecord
100
AcDbDimStyleTableRecord
  2
Default - mm (ANSI)$7
 70
     0
 40
0.5
 41
0.0984251946210861
 42
0.063
 43
0.2362204724409449
 44
0.125
 45
0.00000001
 46
0.3937007874015748
 73
     0
140
0.1200000047683716
143
1.0
144
25.4
147
0.031496062992126
171
     1
176
   256
177
   256
178
   256
179
     1
271
     2
272
     2
274
     1
340
9A
371
    -1
372
    -1
  0
DIMSTYLE
105
A4
330
A
100
AcDbSymbolTableRecord
100
AcDbDimStyleTableRecord
  2
Default - mm [in] (ANSI)
 70
     0
  4
 in
 40
0.5
 41
0.0984251946210861
 42
0.063
 43
0.25
 44
0.125
 45
0.00000001
 46
0.3937007874015748
 73
     0
 78
     4
 79
     1
140
0.1200000047683716
143
0.03937
144
25.4
147
0.031496062992126
170
     1
171
     3
176
   256
177
   256
178
   256
179
     1
271
     2
272
     2
274
     3
284
     4
286
     4
340
9A
371
    -1
372
    -1
  0
DIMSTYLE
105
A5
330
A
100
AcDbSymbolTableRecord
100
AcDbDimStyleTableRecord
  2
Default - mm [in] (ANSI)$7
 70
     0
  4
 in
 40
0.5
 41
0.0984251946210861
 42
0.063
 43
0.25
 44
0.125
 45
0.00000001
 46
0.3937007874015748
 73
     0
 78
     4
 79
     1
140
0.1200000047683716
143
0.03937
144
25.4
147
0.031496062992126
170
     1
171
     3
176
   256
177
   256
178
   256
179
     1
271
     2
272
     2
274
     3
284
     4
286
     4
340
9A
371
    -1
372
    -1
  0
DIMSTYLE
105
A6
330
A
100
AcDbSymbolTableRecord
100
AcDbDimStyleTableRecord
  2
Default (ANSI)
 70
     0
 40
0.5
 41
0.0984251946210861
 42
0.0625
 43
0.2362204724409449
 44
0.125
 45
0.00000001
 46
0.3937007874015748
140
0.1200000047683716
147
0.031496062992126
171
     1
176
   256
177
   256
178
   256
271
     3
272
     3
274
     1
340
9A
371
    -1
372
    -1
  0
DIMSTYLE
105
A7
330
A
100
AcDbSymbolTableRecord
100
AcDbDimStyleTableRecord
  2
Default (ANSI)$7
 70
     0
 40
0.5
 41
0.0984251946210861
 42
0.0625
 43
0.2362204724409449
 44
0.125
 45
0.00000001
 46
0.3937007874015748
140
0.1200000047683716
147
0.031496062992126
171
     1
176
   256
177
   256
178
   256
271
     3
272
     3
274
     1
340
9A
371
    -1
372
    -1
  0
DIMSTYLE
105
A8
330
A
100
AcDbSymbolTableRecord
100
AcDbDimStyleTableRecord
  2
Default (ANSI)-01
 70
     0
 40
0.5
 41
0.0984251946210861
 42
0.0625
 43
0.2362204724409449
 44
0.125
 45
0.00000001
 46
0.3937007874015748
140
0.1200000047683716
147
0.031496062992126
171
     1
176
   256
177
   256
178
   256
271
     3
272
     3
274
     1
340
9A
371
    -1
372
    -1
  0
DIMSTYLE
105
A9
330
A
100
AcDbSymbolTableRecord
100
AcDbDimStyleTableRecord
  2
Default (ANSI)-01$7
 70
     0
 40
0.5
 41
0.0984251946210861
 42
0.0625
 43
0.2362204724409449
 44
0.125
 45
0.00000001
 46
0.3937007874015748
140
0.1200000047683716
147
0.031496062992126
171
     1
176
   256
177
   256
178
   256
271
     3
272
     3
274
     1
340
9A
371
    -1
372
    -1
  0
DIMSTYLE
105
B8
330
A
100
AcDbSymbolTableRecord
100
AcDbDimStyleTableRecord
  2
Miscellaneous Object (ANSI)
 70
     0
 40
0.5
 41
0.1968503892421722
 42
0.0625
 43
0.2362204724409449
 44
0.125
 45
0.00000001
 46
0.3937007874015748
140
0.1799999922513962
146
0.666666721856155
147
0.031496062992126
171
     1
176
   256
177
   256
178
   256
271
     2
272
     2
274
     1
340
96
341
AA
371
    -1
372
    -1
  0
DIMSTYLE
105
B9
330
A
100
AcDbSymbolTableRecord
100
AcDbDimStyleTableRecord
  2
Miscellaneous Object (ANSI)$7
 70
     0
 40
0.5
 41
0.1959999948740005
 42
0.0625
 43
0.2362204724409449
 44
0.125
 45
0.00000001
 46
0.3937007874015748
140
0.1799999922513962
146
0.666666721856155
147
0.031496062992126
171
     1
176
   256
177
   256
178
   256
271
     2
272
     2
274
     1
340
96
341
AA
371
    -1
372
    -1
  0
DIMSTYLE
105
BA
330
A
100
AcDbSymbolTableRecord
100
AcDbDimStyleTableRecord
  2
Alternate (ANSI)
 70
     0
 40
0.5
 41
0.0979999974370003
340
26
342
BB
  0
DIMSTYLE
105
CC
330
A
100
AcDbSymbolTableRecord
100
AcDbDimStyleTableRecord
  2
Datum (ANSI)
 70
     0
 40
0.5
 41
0.0979999974370003
340
26
342
BB
  0
ENDTAB
  0
TABLE
  2
BLOCK_RECORD
  5
1
330
0
100
AcDbSymbolTable
 70
     6
  0
BLOCK_RECORD
  5
37
330
1
100
AcDbSymbolTableRecord
100
AcDbBlockTableRecord
  2
*Model_Space
340
3A
  0
BLOCK_RECORD
  5
33
330
1
100
AcDbSymbolTableRecord
100
AcDbBlockTableRecord
  2
*Paper_Space
340
36
  0
BLOCK_RECORD
  5
3B
330
1
100
AcDbSymbolTableRecord
100
AcDbBlockTableRecord
  2
*Paper_Space0
340
3E
  0
BLOCK_RECORD
  5
AA
330
1
100
AcDbSymbolTableRecord
100
AcDbBlockTableRecord
  2
Filled-1
340
0
  0
BLOCK_RECORD
  5
BB
330
1
100
AcDbSymbolTableRecord
100
AcDbBlockTableRecord
  2
_Closed
340
0
  0
BLOCK_RECORD
  5
C2
330
1
100
AcDbSymbolTableRecord
100
AcDbBlockTableRecord
  2
DatumFilled45
340
0
  0
BLOCK_RECORD
  5
CD
330
1
100
AcDbSymbolTableRecord
100
AcDbBlockTableRecord
  2
Borders Default Border
340
0
102
{BLKREFS
331
FE
102
}
  0
BLOCK_RECORD
  5
3EF
330
1
100
AcDbSymbolTableRecord
100
AcDbBlockTableRecord
  2
Parts List
340
0
102
{BLKREFS
331
42E
102
}
  0
ENDTAB
  0
ENDSEC
  0
SECTION
  2
BLOCKS
  0
BLOCK
  5
38
330
37
100
AcDbEntity
  8
0
100
AcDbBlockBegin
  2
*Model_Space
 70
     0
 10
0.0
 20
0.0
 30
0.0
  3
*Model_Space
  1

  0
ENDBLK
  5
39
330
37
100
AcDbEntity
  8
0
100
AcDbBlockEnd
  0
BLOCK
  5
34
330
33
100
AcDbEntity
 67
     1
  8
0
100
AcDbBlockBegin
  2
*Paper_Space
 70
     0
 10
0.0
 20
0.0
 30
0.0
  3
*Paper_Space
  1

  0
ENDBLK
  5
35
330
33
100
AcDbEntity
 67
     1
  8
0
100
AcDbBlockEnd
  0
BLOCK
  5
3C
330
3B
100
AcDbEntity
 67
     1
  8
0
100
AcDbBlockBegin
  2
*Paper_Space0
 70
     0
 10
0.0
 20
0.0
 30
0.0
  3
*Paper_Space0
  1

  0
ENDBLK
  5
3D
330
3B
100
AcDbEntity
 67
     1
  8
0
100
AcDbBlockEnd
  0
BLOCK
  5
AB
330
AA
100
AcDbEntity
  8
0
100
AcDbBlockBegin
  2
Filled-1
 70
     0
 10
0.0
 20
0.0
 30
0.0
  3
Filled-1
  1

  0
LINE
  5
AD
330
AA
100
AcDbEntity
  8
0
 62
     0
100
AcDbLine
 10
-0.9999999999999998
 20
0.0
 30
0.0
 11
0.0
 21
0.0
 31
0.0
  0
POLYLINE
  5
AE
330
AA
100
AcDbEntity
  8
0
 62
     0
100
AcDb2dPolyline
 66
     1
 10
0.0
 20
0.0
 30
0.0
 70
   128
  0
VERTEX
  5
AF
330
AE
100
AcDbEntity
  8
0
 62
     0
100
AcDbVertex
100
AcDb2dVertex
 10
-0.9999999999999998
 20
-0.0994897959183674
 30
0.0
  0
VERTEX
  5
B0
330
AE
100
AcDbEntity
  8
0
 62
     0
100
AcDbVertex
100
AcDb2dVertex
 10
0.0
 20
0.0
 30
0.0
  0
VERTEX
  5
B2
330
AE
100
AcDbEntity
  8
0
 62
     0
100
AcDbVertex
100
AcDb2dVertex
 10
-0.9999999999999998
 20
0.0994897959183674
 30
0.0
  0
VERTEX
  5
B3
330
AE
100
AcDbEntity
  8
0
 62
     0
100
AcDbVertex
100
AcDb2dVertex
 10
-0.9999999999999998
 20
-0.0994897959183674
 30
0.0
  0
SEQEND
  5
B1
330
AE
100
AcDbEntity
  8
0
 62
     0
  0
SOLID
  5
B4
330
AA
100
AcDbEntity
  8
0
 62
     0
100
AcDbTrace
 10
-0.9999999999999998
 20
-0.0994897959183674
 30
0.0
 11
0.0
 21
0.0
 31
0.0
 12
-0.9999999999999998
 22
0.0994897959183674
 32
0.0
 13
-0.9999999999999998
 23
-0.0994897959183674
 33
0.0
  0
LINE
  5
B5
330
AA
100
AcDbEntity
  8
0
 62
     0
100
AcDbLine
 10
-0.9999999999999998
 20
-0.0994897959183674
 30
0.0
 11
0.0
 21
0.0
 31
0.0
  0
LINE
  5
B6
330
AA
100
AcDbEntity
  8
0
 62
     0
100
AcDbLine
 10
0.0
 20
0.0
 30
0.0
 11
-0.9999999999999998
 21
0.0994897959183674
 31
0.0
  0
LINE
  5
B7
330
AA
100
AcDbEntity
  8
0
 62
     0
100
AcDbLine
 10
-0.9999999999999998
 20
0.0994897959183674
 30
0.0
 11
-0.9999999999999998
 21
-0.0994897959183674
 31
0.0
  0
ENDBLK
  5
AC
330
AA
100
AcDbEntity
  8
0
100
AcDbBlockEnd
  0
BLOCK
  5
C0
330
BB
100
AcDbEntity
  8
0
100
AcDbBlockBegin
  2
_Closed
 70
     0
 10
0.0
 20
0.0
 30
0.0
  3
_Closed
  1

  0
LINE
  5
BC
330
BB
100
AcDbEntity
  8
0
  6
ByBlock
 62
     0
370
    -2
100
AcDbLine
 10
-1.0
 20
0.1666666666666666
 30
0.0
 11
0.0
 21
0.0
 31
0.0
  0
LINE
  5
BD
330
BB
100
AcDbEntity
  8
0
  6
ByBlock
 62
     0
370
    -2
100
AcDbLine
 10
0.0
 20
0.0
 30
0.0
 11
-1.0
 21
-0.1666666666666666
 31
0.0
  0
LINE
  5
BE
330
BB
100
AcDbEntity
  8
0
  6
ByBlock
 62
     0
370
    -2
100
AcDbLine
 10
-1.0
 20
0.1666666666666666
 30
0.0
 11
-1.0
 21
-0.1666666666666666
 31
0.0
  0
LINE
  5
BF
330
BB
100
AcDbEntity
  8
0
  6
ByBlock
 62
     0
370
    -2
100
AcDbLine
 10
0.0
 20
0.0
 30
0.0
 11
-1.0
 21
0.0
 31
0.0
  0
ENDBLK
  5
C1
330
BB
100
AcDbEntity
  8
0
100
AcDbBlockEnd
  0
BLOCK
  5
C3
330
C2
100
AcDbEntity
  8
0
100
AcDbBlockBegin
  2
DatumFilled45
 70
     0
 10
0.0
 20
0.0
 30
0.0
  3
DatumFilled45
  1

  0
POLYLINE
  5
C5
330
C2
100
AcDbEntity
  8
0
 62
     0
100
AcDb2dPolyline
 66
     1
 10
0.0
 20
0.0
 30
0.0
 70
   128
  0
VERTEX
  5
C6
330
C5
100
AcDbEntity
  8
0
 62
     0
100
AcDbVertex
100
AcDb2dVertex
 10
0.0
 20
0.9999999999999998
 30
0.0
  0
VERTEX
  5
C7
330
C5
100
AcDbEntity
  8
0
 62
     0
100
AcDbVertex
100
AcDb2dVertex
 10
0.0
 20
-0.9999999999999998
 30
0.0
  0
VERTEX
  5
C9
330
C5
100
AcDbEntity
  8
0
 62
     0
100
AcDbVertex
100
AcDb2dVertex
 10
-0.9999999999999998
 20
0.0
 30
0.0
  0
VERTEX
  5
CA
330
C5
100
AcDbEntity
  8
0
 62
     0
100
AcDbVertex
100
AcDb2dVertex
 10
0.0
 20
0.9999999999999998
 30
0.0
  0
SEQEND
  5
C8
330
C5
100
AcDbEntity
  8
0
 62
     0
  0
SOLID
  5
CB
330
C2
100
AcDbEntity
  8
0
 62
     0
100
AcDbTrace
 10
0.0
 20
0.9999999999999998
 30
0.0
 11
0.0
 21
-0.9999999999999998
 31
0.0
 12
-0.9999999999999998
 22
0.0
 32
0.0
 13
0.0
 23
0.9999999999999998
 33
0.0
  0
ENDBLK
  5
C4
330
C2
100
AcDbEntity
  8
0
100
AcDbBlockEnd
  0
BLOCK
  5
CE
330
CD
100
AcDbEntity
  8
0
100
AcDbBlockBegin
  2
Borders Default Border
 70
     0
 10
0.0
 20
0.0
 30
0.0
  3
Borders Default Border
  1

  0
POLYLINE
  5
D0
330
CD
100
AcDbEntity
  8
Border (ANSI)
100
AcDb2dPolyline
 66
     1
 10
0.0
 20
0.0
 30
0.0
 70
   128
  0
VERTEX
  5
D1
330
D0
100
AcDbEntity
  8
Border (ANSI)
100
AcDbVertex
100
AcDb2dVertex
 10
0.380000002740875
 20
0.380000002740875
 30
0.0
  0
VERTEX
  5
D2
330
D0
100
AcDbEntity
  8
Border (ANSI)
100
AcDbVertex
100
AcDb2dVertex
 10
0.380000002740875
 20
8.119999893068328
 30
0.0
  0
VERTEX
  5
D4
330
D0
100
AcDbEntity
  8
Border (ANSI)
100
AcDbVertex
100
AcDb2dVertex
 10
10.62000004325326
 20
8.119999893068328
 30
0.0
  0
VERTEX
  5
D5
330
D0
100
AcDbEntity
  8
Border (ANSI)
100
AcDbVertex
100
AcDb2dVertex
 10
10.62000004325326
 20
0.380000002740875
 30
0.0
  0
VERTEX
  5
D6
330
D0
100
AcDbEntity
  8
Border (ANSI)
100
AcDbVertex
100
AcDb2dVertex
 10
0.380000002740875
 20
0.380000002740875
 30
0.0
  0
SEQEND
  5
D3
330
D0
100
AcDbEntity
  8
Border (ANSI)
  0
POLYLINE
  5
D7
330
CD
100
AcDbEntity
  8
Border (ANSI)
100
AcDb2dPolyline
 66
     1
 10
0.0
 20
0.0
 30
0.0
 70
   128
  0
VERTEX
  5
D8
330
D7
100
AcDbEntity
  8
Border (ANSI)
100
AcDbVertex
100
AcDb2dVertex
 10
5.500000105129451
 20
0.1299999947623005
 30
0.0
  0
VERTEX
  5
D9
330
D7
100
AcDbEntity
  8
Border (ANSI)
100
AcDbVertex
100
AcDb2dVertex
 10
5.500000105129451
 20
0.380000002740875
 30
0.0
  0
VERTEX
  5
DB
330
D7
100
AcDbEntity
  8
Border (ANSI)
100
AcDbVertex
100
AcDb2dVertex
 10
5.413397466103861
 20
0.2300000096869281
 30
0.0
  0
VERTEX
  5
DC
330
D7
100
AcDbEntity
  8
Border (ANSI)
100
AcDbVertex
100
AcDb2dVertex
 10
5.586602368692712
 20
0.2300000096869281
 30
0.0
  0
VERTEX
  5
DD
330
D7
100
AcDbEntity
  8
Border (ANSI)
100
AcDbVertex
100
AcDb2dVertex
 10
5.500000105129451
 20
0.380000002740875
 30
0.0
  0
SEQEND
  5
DA
330
D7
100
AcDbEntity
  8
Border (ANSI)
  0
POLYLINE
  5
DE
330
CD
100
AcDbEntity
  8
Border (ANSI)
100
AcDb2dPolyline
 66
     1
 10
0.0
 20
0.0
 30
0.0
 70
   128
  0
VERTEX
  5
DF
330
DE
100
AcDbEntity
  8
Border (ANSI)
100
AcDbVertex
100
AcDb2dVertex
 10
5.500000105129451
 20
8.369999983179287
 30
0.0
  0
VERTEX
  5
E0
330
DE
100
AcDbEntity
  8
Border (ANSI)
100
AcDbVertex
100
AcDb2dVertex
 10
5.500000105129451
 20
8.119999893068328
 30
0.0
  0
VERTEX
  5
E2
330
DE
100
AcDbEntity
  8
Border (ANSI)
100
AcDbVertex
100
AcDb2dVertex
 10
5.413397466103861
 20
8.270000097319835
 30
0.0
  0
VERTEX
  5
E3
330
DE
100
AcDbEntity
  8
Border (ANSI)
100
AcDbVertex
100
AcDb2dVertex
 10
5.586602368692712
 20
8.270000097319835
 30
0.0
  0
VERTEX
  5
E4
330
DE
100
AcDbEntity
  8
Border (ANSI)
100
AcDbVertex
100
AcDb2dVertex
 10
5.500000105129451
 20
8.119999893068328
 30
0.0
  0
SEQEND
  5
E1
330
DE
100
AcDbEntity
  8
Border (ANSI)
  0
POLYLINE
  5
E5
330
CD
100
AcDbEntity
  8
Border (ANSI)
100
AcDb2dPolyline
 66
     1
 10
0.0
 20
0.0
 30
0.0
 70
   128
  0
VERTEX
  5
E6
330
E5
100
AcDbEntity
  8
Border (ANSI)
100
AcDbVertex
100
AcDb2dVertex
 10
0.1299999947623005
 20
4.250000030036986
 30
0.0
  0
VERTEX
  5
E7
330
E5
100
AcDbEntity
  8
Border (ANSI)
100
AcDbVertex
100
AcDb2dVertex
 10
0.380000002740875
 20
4.250000030036986
 30
0.0
  0
VERTEX
  5
E9
330
E5
100
AcDbEntity
  8
Border (ANSI)
100
AcDbVertex
100
AcDb2dVertex
 10
0.2300000096869281
 20
4.336602669062576
 30
0.0
  0
VERTEX
  5
EA
330
E5
100
AcDbEntity
  8
Border (ANSI)
100
AcDbVertex
100
AcDb2dVertex
 10
0.2300000096869281
 20
4.163397391011395
 30
0.0
  0
VERTEX
  5
EB
330
E5
100
AcDbEntity
  8
Border (ANSI)
100
AcDbVertex
100
AcDb2dVertex
 10
0.380000002740875
 20
4.250000030036986
 30
0.0
  0
SEQEND
  5
E8
330
E5
100
AcDbEntity
  8
Border (ANSI)
  0
POLYLINE
  5
EC
330
CD
100
AcDbEntity
  8
Border (ANSI)
100
AcDb2dPolyline
 66
     1
 10
0.0
 20
0.0
 30
0.0
 70
   128
  0
VERTEX
  5
ED
330
EC
100
AcDbEntity
  8
Border (ANSI)
100
AcDbVertex
100
AcDb2dVertex
 10
10.87000013336422
 20
4.250000030036986
 30
0.0
  0
VERTEX
  5
EE
330
EC
100
AcDbEntity
  8
Border (ANSI)
100
AcDbVertex
100
AcDb2dVertex
 10
10.62000004325326
 20
4.250000030036986
 30
0.0
  0
VERTEX
  5
F0
330
EC
100
AcDbEntity
  8
Border (ANSI)
100
AcDbVertex
100
AcDb2dVertex
 10
10.77000024750476
 20
4.336602669062576
 30
0.0
  0
VERTEX
  5
F1
330
EC
100
AcDbEntity
  8
Border (ANSI)
100
AcDbVertex
100
AcDb2dVertex
 10
10.77000024750476
 20
4.163397391011395
 30
0.0
  0
VERTEX
  5
F2
330
EC
100
AcDbEntity
  8
Border (ANSI)
100
AcDbVertex
100
AcDb2dVertex
 10
10.62000004325326
 20
4.250000030036986
 30
0.0
  0
SEQEND
  5
EF
330
EC
100
AcDbEntity
  8
Border (ANSI)
  0
MTEXT
  5
F4
330
CD
100
AcDbEntity
  8
Border (ANSI)
100
AcDbMText
 10
8.24092395498058
 20
8.16
 30
0.0
 40
0.1200000014830762
 41
0.0
 71
     7
 72
     1
  1
1
  7
Text Style29
 73
     1
 44
2.927434206008911
1001
ACAD
1000
MTEXTBEGIN
1070
    73
1070
     1
1070
    44
1040
2.927434206008911
1070
    74
1070
     0
1000
MTEXTEND
  0
MTEXT
  5
F7
330
CD
100
AcDbEntity
  8
Border (ANSI)
100
AcDbMText
 10
8.24092395498058
 20
0.2199999985169238
 30
0.0
 40
0.1200000014830762
 41
0.0
 71
     7
 72
     1
  1
1
  7
Text Style29
 73
     1
 44
1.0
1001
ACAD
1000
MTEXTBEGIN
1070
    73
1070
     1
1070
    44
1040
1.0
1070
    74
1070
     0
1000
MTEXTEND
  0
MTEXT
  5
F8
330
CD
100
AcDbEntity
  8
Border (ANSI)
100
AcDbMText
 10
2.722276993858532
 20
8.16
 30
0.0
 40
0.1200000014830762
 41
0.0
 71
     7
 72
     1
  1
2
  7
Text Style29
 73
     1
 44
1.0
1001
ACAD
1000
MTEXTBEGIN
1070
    73
1070
     1
1070
    44
1040
1.0
1070
    74
1070
     0
1000
MTEXTEND
  0
MTEXT
  5
F9
330
CD
100
AcDbEntity
  8
Border (ANSI)
100
AcDbMText
 10
2.722276993858532
 20
0.2199999985169238
 30
0.0
 40
0.1200000014830762
 41
0.0
 71
     7
 72
     1
  1
2
  7
Text Style29
 73
     1
 44
2.439876317977905
1001
ACAD
1000
MTEXTBEGIN
1070
    73
1070
     1
1070
    44
1040
2.439876317977905
1070
    74
1070
     0
1000
MTEXTEND
  0
MTEXT
  5
FA
330
CD
100
AcDbEntity
  8
Border (ANSI)
100
AcDbMText
 10
0.2281865791448458
 20
2.064999999258461
 30
0.0
 40
0.1200000014830762
 41
0.0
 71
     7
 72
     1
  1
A
  7
Text Style29
 73
     1
 44
1.0
1001
ACAD
1000
MTEXTBEGIN
1070
    73
1070
     1
1070
    44
1040
1.0
1070
    74
1070
     0
1000
MTEXTEND
  0
MTEXT
  5
FB
330
CD
100
AcDbEntity
  8
Border (ANSI)
100
AcDbMText
 10
10.66818658062792
 20
2.064999999258461
 30
0.0
 40
0.1200000014830762
 41
0.0
 71
     7
 72
     1
  1
A
  7
Text Style29
 73
     1
 44
1.0
1001
ACAD
1000
MTEXTBEGIN
1070
    73
1070
     1
1070
    44
1040
1.0
1070
    74
1070
     0
1000
MTEXTEND
  0
MTEXT
  5
FC
330
CD
100
AcDbEntity
  8
Border (ANSI)
100
AcDbMText
 10
0.2554072225563169
 20
6.314999999258461
 30
0.0
 40
0.1200000014830762
 41
0.0
 71
     7
 72
     1
  1
B
  7
Text Style29
 73
     1
 44
1.0
1001
ACAD
1000
MTEXTBEGIN
1070
    73
1070
     1
1070
    44
1040
1.0
1070
    74
1070
     0
1000
MTEXTEND
  0
MTEXT
  5
FD
330
CD
100
AcDbEntity
  8
Border (ANSI)
100
AcDbMText
 10
10.69540722403939
 20
6.314999999258461
 30
0.0
 40
0.1200000014830762
 41
0.0
 71
     7
 72
     1
  1
B
  7
Text Style29
 73
     1
 44
1.0
1001
ACAD
1000
MTEXTBEGIN
1070
    73
1070
     1
1070
    44
1040
1.0
1070
    74
1070
     0
1000
MTEXTEND
  0
ENDBLK
  5
CF
330
CD
100
AcDbEntity
  8
0
100
AcDbBlockEnd
  0
BLOCK
  5
3F0
330
3EF
100
AcDbEntity
  8
0
100
AcDbBlockBegin
  2
Parts List
 70
     0
 10
0.0
 20
0.0
 30
0.0
  3
Parts List
  1

  0
LINE
  5
3F2
330
3EF
100
AcDbEntity
  8
Symbol (ANSI)
100
AcDbLine
 10
10.18661122556971
 20
3.066350716602855
 30
0.0
 11
4.005936375727461
 21
3.066350716602855
 31
0.0
  0
LINE
  5
3F3
330
3EF
100
AcDbEntity
  8
Symbol (ANSI)
100
AcDbLine
 10
10.18661122556971
 20
3.066350716602855
 30
0.0
 11
10.18661122556971
 21
2.837841803721759
 31
0.0
  0
LINE
  5
3F4
330
3EF
100
AcDbEntity
  8
Symbol (ANSI)
100
AcDbLine
 10
4.005936375727461
 20
3.066350716602855
 30
0.0
 11
4.005936375727461
 21
2.837841803721759
 31
0.0
  0
MTEXT
  5
3F5
330
3EF
100
AcDbEntity
  8
Symbol (ANSI)
100
AcDbMText
 10
6.787191568526242
 20
2.889178918669013
 30
0.0
 40
0.1200000014830762
 41
0.0
 71
     7
 72
     1
  1
Parts List
  7
Text Style29
 73
     1
 44
1.0
1001
ACAD
1000
MTEXTBEGIN
1070
    73
1070
     1
1070
    44
1040
1.0
1070
    74
1070
     0
1000
MTEXTEND
  0
LINE
  5
3F6
330
3EF
100
AcDbEntity
  8
Symbol (ANSI)
100
AcDbLine
 10
10.18661122556971
 20
2.837841803721759
 30
0.0
 11
4.005936375727461
 21
2.837841803721759
 31
0.0
  0
LINE
  5
3F7
330
3EF
100
AcDbEntity
  8
Symbol (ANSI)
100
AcDbLine
 10
10.18661122556971
 20
2.837841803721759
 30
0.0
 11
10.18661122556971
 21
2.609332890840664
 31
0.0
  0
MTEXT
  5
3F8
330
3EF
100
AcDbEntity
  8
Symbol (ANSI)
100
AcDbMText
 10
7.677224462928331
 20
2.659794803201458
 30
0.0
 40
0.1200000014830762
 41
0.0
 71
     7
 72
     1
  1
DESCRIPTION
  7
Text Style29
 73
     1
 44
1.0
1001
ACAD
1000
MTEXTBEGIN
1070
    73
1070
     1
1070
    44
1040
1.0
1070
    74
1070
     0
1000
MTEXTEND
  0
LINE
  5
3F9
330
3EF
100
AcDbEntity
  8
Symbol (ANSI)
100
AcDbLine
 10
6.155143210049447
 20
2.837841803721759
 30
0.0
 11
6.155143210049447
 21
2.609332890840664
 31
0.0
  0
MTEXT
  5
3FA
330
3EF
100
AcDbEntity
  8
Symbol (ANSI)
100
AcDbMText
 10
5.066020424165822
 20
2.661058984715233
 30
0.0
 40
0.1200000014830762
 41
0.0
 71
     7
 72
     1
  1
PART NUMBER
  7
Text Style29
 73
     1
 44
1.0
1001
ACAD
1000
MTEXTBEGIN
1070
    73
1070
     1
1070
    44
1040
1.0
1070
    74
1070
     0
1000
MTEXTEND
  0
LINE
  5
3FB
330
3EF
100
AcDbEntity
  8
Symbol (ANSI)
100
AcDbLine
 10
5.006990835091019
 20
2.837841803721759
 30
0.0
 11
5.006990835091019
 21
2.609332890840664
 31
0.0
  0
MTEXT
  5
3FC
330
3EF
100
AcDbEntity
  8
Symbol (ANSI)
100
AcDbMText
 10
4.629699143049486
 20
2.630718628384619
 30
0.0
 40
0.1200000014830762
 41
0.0
 71
     7
 72
     1
  1
QTY
  7
Text Style29
 73
     1
 44
1.0
1001
ACAD
1000
MTEXTBEGIN
1070
    73
1070
     1
1070
    44
1040
1.0
1070
    74
1070
     0
1000
MTEXTEND
  0
LINE
  5
3FD
330
3EF
100
AcDbEntity
  8
Symbol (ANSI)
100
AcDbLine
 10
4.541472096775164
 20
2.837841803721759
 30
0.0
 11
4.541472096775164
 21
2.609332890840664
 31
0.0
  0
MTEXT
  5
3FE
330
3EF
100
AcDbEntity
  8
Symbol (ANSI)
100
AcDbMText
 10
4.099657195124251
 20
2.663587347742785
 30
0.0
 40
0.1200000014830762
 41
0.0
 71
     7
 72
     1
  1
ITEM
  7
Text Style29
 73
     1
 44
1.0
1001
ACAD
1000
MTEXTBEGIN
1070
    73
1070
     1
1070
    44
1040
1.0
1070
    74
1070
     0
1000
MTEXTEND
  0
LINE
  5
3FF
330
3EF
100
AcDbEntity
  8
Symbol (ANSI)
100
AcDbLine
 10
4.005936375727462
 20
2.837841803721759
 30
0.0
 11
4.005936375727462
 21
2.609332890840664
 31
0.0
  0
MTEXT
  5
400
330
3EF
100
AcDbEntity
  8
Symbol (ANSI)
100
AcDbMText
 10
6.190143210049448
 20
2.435078433658578
 30
0.0
 40
0.1200000014830762
 41
0.0
 71
     7
 72
     1
  1
 
  7
Text Style29
 73
     1
 44
1.0
1001
ACAD
1000
MTEXTBEGIN
1070
    73
1070
     1
1070
    44
1040
1.0
1070
    74
1070
     0
1000
MTEXTEND
  0
MTEXT
  5
401
330
3EF
100
AcDbEntity
  8
Symbol (ANSI)
100
AcDbMText
 10
5.066020424165822
 20
2.429875841708843
 30
0.0
 40
0.1200000014830762
 41
0.0
 71
     7
 72
     1
  1
Block1-V61
  7
Text Style29
 73
     1
 44
2.744028806686401
1001
ACAD
1000
MTEXTBEGIN
1070
    73
1070
     1
1070
    44
1040
2.744028806686401
1070
    74
1070
     0
1000
MTEXTEND
  0
MTEXT
  5
402
330
3EF
100
AcDbEntity
  8
Symbol (ANSI)
100
AcDbMText
 10
4.765155420913672
 20
2.434883945398031
 30
0.0
 40
0.1200000014830762
 41
0.0
 71
     7
 72
     1
  1
1
  7
Text Style29
 73
     1
 44
1.0
1001
ACAD
1000
MTEXTBEGIN
1070
    73
1070
     1
1070
    44
1040
1.0
1070
    74
1070
     0
1000
MTEXTEND
  0
MTEXT
  5
403
330
3EF
100
AcDbEntity
  8
Symbol (ANSI)
100
AcDbMText
 10
4.264628191231893
 20
2.434883945398031
 30
0.0
 40
0.1200000014830762
 41
0.0
 71
     7
 72
     1
  1
1
  7
Text Style29
 73
     1
 44
1.0
1001
ACAD
1000
MTEXTBEGIN
1070
    73
1070
     1
1070
    44
1040
1.0
1070
    74
1070
     0
1000
MTEXTEND
  0
LINE
  5
404
330
3EF
100
AcDbEntity
  8
Symbol (ANSI)
100
AcDbLine
 10
10.18661122556971
 20
2.609332890840664
 30
0.0
 11
4.005936375727462
 21
2.609332890840664
 31
0.0
  0
MTEXT
  5
405
330
3EF
100
AcDbEntity
  8
Symbol (ANSI)
100
AcDbMText
 10
6.190143210049448
 20
2.206569520777483
 30
0.0
 40
0.1200000014830762
 41
0.0
 71
     7
 72
     1
  1
 
  7
Text Style29
 73
     1
 44
1.0
1001
ACAD
1000
MTEXTBEGIN
1070
    73
1070
     1
1070
    44
1040
1.0
1070
    74
1070
     0
1000
MTEXTEND
  0
MTEXT
  5
406
330
3EF
100
AcDbEntity
  8
Symbol (ANSI)
100
AcDbMText
 10
5.066020424165822
 20
2.201366928827748
 30
0.0
 40
0.1200000014830762
 41
0.0
 71
     7
 72
     1
  1
Block2-V61
  7
Text Style29
 73
     1
 44
2.744028806686401
1001
ACAD
1000
MTEXTBEGIN
1070
    73
1070
     1
1070
    44
1040
2.744028806686401
1070
    74
1070
     0
1000
MTEXTEND
  0
MTEXT
  5
407
330
3EF
100
AcDbEntity
  8
Symbol (ANSI)
100
AcDbMText
 10
4.765155420913672
 20
2.206375032516936
 30
0.0
 40
0.1200000014830762
 41
0.0
 71
     7
 72
     1
  1
1
  7
Text Style29
 73
     1
 44
1.0
1001
ACAD
1000
MTEXTBEGIN
1070
    73
1070
     1
1070
    44
1040
1.0
1070
    74
1070
     0
1000
MTEXTEND
  0
MTEXT
  5
408
330
3EF
100
AcDbEntity
  8
Symbol (ANSI)
100
AcDbMText
 10
4.245981230109846
 20
2.205305340466818
 30
0.0
 40
0.1200000014830762
 41
0.0
 71
     7
 72
     1
  1
2
  7
Text Style29
 73
     1
 44
1.0
1001
ACAD
1000
MTEXTBEGIN
1070
    73
1070
     1
1070
    44
1040
1.0
1070
    74
1070
     0
1000
MTEXTEND
  0
LINE
  5
409
330
3EF
100
AcDbEntity
  8
Symbol (ANSI)
100
AcDbLine
 10
10.18661122556971
 20
2.380823977959569
 30
0.0
 11
4.005936375727462
 21
2.380823977959569
 31
0.0
  0
MTEXT
  5
40A
330
3EF
100
AcDbEntity
  8
Symbol (ANSI)
100
AcDbMText
 10
6.190143210049448
 20
1.978060607896387
 30
0.0
 40
0.1200000014830762
 41
0.0
 71
     7
 72
     1
  1
 
  7
Text Style29
 73
     1
 44
1.0
1001
ACAD
1000
MTEXTBEGIN
1070
    73
1070
     1
1070
    44
1040
1.0
1070
    74
1070
     0
1000
MTEXTEND
  0
MTEXT
  5
40B
330
3EF
100
AcDbEntity
  8
Symbol (ANSI)
100
AcDbMText
 10
5.066020424165822
 20
1.972858015946653
 30
0.0
 40
0.1200000014830762
 41
0.0
 71
     7
 72
     1
  1
Block3-V61
  7
Text Style29
 73
     1
 44
2.744028806686401
1001
ACAD
1000
MTEXTBEGIN
1070
    73
1070
     1
1070
    44
1040
2.744028806686401
1070
    74
1070
     0
1000
MTEXTEND
  0
MTEXT
  5
40C
330
3EF
100
AcDbEntity
  8
Symbol (ANSI)
100
AcDbMText
 10
4.765155420913672
 20
1.977866119635841
 30
0.0
 40
0.1200000014830762
 41
0.0
 71
     7
 72
     1
  1
1
  7
Text Style29
 73
     1
 44
1.0
1001
ACAD
1000
MTEXTBEGIN
1070
    73
1070
     1
1070
    44
1040
1.0
1070
    74
1070
     0
1000
MTEXTEND
  0
MTEXT
  5
40D
330
3EF
100
AcDbEntity
  8
Symbol (ANSI)
100
AcDbMText
 10
4.244058862983862
 20
1.974268064558172
 30
0.0
 40
0.1200000014830762
 41
0.0
 71
     7
 72
     1
  1
3
  7
Text Style29
 73
     1
 44
1.0
1001
ACAD
1000
MTEXTBEGIN
1070
    73
1070
     1
1070
    44
1040
1.0
1070
    74
1070
     0
1000
MTEXTEND
  0
LINE
  5
40E
330
3EF
100
AcDbEntity
  8
Symbol (ANSI)
100
AcDbLine
 10
10.18661122556971
 20
2.152315065078473
 30
0.0
 11
4.005936375727462
 21
2.152315065078473
 31
0.0
  0
MTEXT
  5
40F
330
3EF
100
AcDbEntity
  8
Symbol (ANSI)
100
AcDbMText
 10
6.190143210049448
 20
1.749551695015292
 30
0.0
 40
0.1200000014830762
 41
0.0
 71
     7
 72
     1
  1
 
  7
Text Style29
 73
     1
 44
1.0
1001
ACAD
1000
MTEXTBEGIN
1070
    73
1070
     1
1070
    44
1040
1.0
1070
    74
1070
     0
1000
MTEXTEND
  0
MTEXT
  5
410
330
3EF
100
AcDbEntity
  8
Symbol (ANSI)
100
AcDbMText
 10
5.066020424165822
 20
1.744349103065557
 30
0.0
 40
0.1200000014830762
 41
0.0
 71
     7
 72
     1
  1
Block4-V61
  7
Text Style29
 73
     1
 44
2.744028806686401
1001
ACAD
1000
MTEXTBEGIN
1070
    73
1070
     1
1070
    44
1040
2.744028806686401
1070
    74
1070
     0
1000
MTEXTEND
  0
MTEXT
  5
411
330
3EF
100
AcDbEntity
  8
Symbol (ANSI)
100
AcDbMText
 10
4.765155420913672
 20
1.749357206754745
 30
0.0
 40
0.1200000014830762
 41
0.0
 71
     7
 72
     1
  1
1
  7
Text Style29
 73
     1
 44
1.0
1001
ACAD
1000
MTEXTBEGIN
1070
    73
1070
     1
1070
    44
1040
1.0
1070
    74
1070
     0
1000
MTEXTEND
  0
MTEXT
  5
412
330
3EF
100
AcDbEntity
  8
Symbol (ANSI)
100
AcDbMText
 10
4.235023737491736
 20
1.749551696218403
 30
0.0
 40
0.1200000014830762
 41
0.0
 71
     7
 72
     1
  1
4
  7
Text Style29
 73
     1
 44
1.0
1001
ACAD
1000
MTEXTBEGIN
1070
    73
1070
     1
1070
    44
1040
1.0
1070
    74
1070
     0
1000
MTEXTEND
  0
LINE
  5
413
330
3EF
100
AcDbEntity
  8
Symbol (ANSI)
100
AcDbLine
 10
10.18661122556971
 20
1.923806152197378
 30
0.0
 11
4.005936375727462
 21
1.923806152197378
 31
0.0
  0
MTEXT
  5
414
330
3EF
100
AcDbEntity
  8
Symbol (ANSI)
100
AcDbMText
 10
6.203407543218739
 20
1.49230696508187
 30
0.0
 40
0.1200000014830762
 41
0.0
 71
     7
 72
     1
  1
0.0938"x 3/8" STAINLESS STEEL DOWEL PIN
  7
Text Style29
 73
     1
 44
1.0
1001
ACAD
1000
MTEXTBEGIN
1070
    73
1070
     1
1070
    44
1040
1.0
1070
    74
1070
     0
1000
MTEXTEND
  0
MTEXT
  5
415
330
3EF
100
AcDbEntity
  8
Symbol (ANSI)
100
AcDbMText
 10
5.066020424165822
 20
1.517250238795981
 30
0.0
 40
0.1200000014830762
 41
0.0
 71
     7
 72
     1
  1
PIN.375
  7
Text Style29
 73
     1
 44
1.0
1001
ACAD
1000
MTEXTBEGIN
1070
    73
1070
     1
1070
    44
1040
1.0
1070
    74
1070
     0
1000
MTEXTEND
  0
MTEXT
  5
416
330
3EF
100
AcDbEntity
  8
Symbol (ANSI)
100
AcDbMText
 10
4.74093359512627
 20
1.516958504600494
 30
0.0
 40
0.1200000014830762
 41
0.0
 71
     7
 72
     1
  1
8
  7
Text Style29
 73
     1
 44
1.0
1001
ACAD
1000
MTEXTBEGIN
1070
    73
1070
     1
1070
    44
1040
1.0
1070
    74
1070
     0
1000
MTEXTEND
  0
MTEXT
  5
417
330
3EF
100
AcDbEntity
  8
Symbol (ANSI)
100
AcDbMText
 10
4.248480307373625
 20
1.518514420309756
 30
0.0
 40
0.1200000014830762
 41
0.0
 71
     7
 72
     1
  1
5
  7
Text Style29
 73
     1
 44
1.0
1001
ACAD
1000
MTEXTBEGIN
1070
    73
1070
     1
1070
    44
1040
1.0
1070
    74
1070
     0
1000
MTEXTEND
  0
LINE
  5
418
330
3EF
100
AcDbEntity
  8
Symbol (ANSI)
100
AcDbLine
 10
10.18661122556971
 20
1.695297239316282
 30
0.0
 11
4.005936375727462
 21
1.695297239316282
 31
0.0
  0
MTEXT
  5
419
330
3EF
100
AcDbEntity
  8
Symbol (ANSI)
100
AcDbMText
 10
6.207444514183306
 20
1.263798052200774
 30
0.0
 40
0.1200000014830762
 41
0.0
 71
     7
 72
     1
  1
2-56 X 3/8" STAINLESS STEEL SOCKET CAP SCREW
  7
Text Style29
 73
     1
 44
1.0
1001
ACAD
1000
MTEXTBEGIN
1070
    73
1070
     1
1070
    44
1040
1.0
1070
    74
1070
     0
1000
MTEXTEND
  0
MTEXT
  5
41A
330
3EF
100
AcDbEntity
  8
Symbol (ANSI)
100
AcDbMText
 10
5.052756090996531
 20
1.288449591719398
 30
0.0
 40
0.1200000014830762
 41
0.0
 71
     7
 72
     1
  1
screw3.8
  7
Text Style29
 73
     1
 44
1.0
1001
ACAD
1000
MTEXTBEGIN
1070
    73
1070
     1
1070
    44
1040
1.0
1070
    74
1070
     0
1000
MTEXTEND
  0
MTEXT
  5
41B
330
3EF
100
AcDbEntity
  8
Symbol (ANSI)
100
AcDbMText
 10
4.749007537055405
 20
1.290005507428661
 30
0.0
 40
0.1200000014830762
 41
0.0
 71
     7
 72
     1
  1
5
  7
Text Style29
 73
     1
 44
1.0
1001
ACAD
1000
MTEXTBEGIN
1070
    73
1070
     1
1070
    44
1040
1.0
1070
    74
1070
     0
1000
MTEXTEND
  0
MTEXT
  5
41C
330
3EF
100
AcDbEntity
  8
Symbol (ANSI)
100
AcDbMText
 10
4.242136495857877
 20
1.288887193012628
 30
0.0
 40
0.1200000014830762
 41
0.0
 71
     7
 72
     1
  1
6
  7
Text Style29
 73
     1
 44
1.0
1001
ACAD
1000
MTEXTBEGIN
1070
    73
1070
     1
1070
    44
1040
1.0
1070
    74
1070
     0
1000
MTEXTEND
  0
LINE
  5
41D
330
3EF
100
AcDbEntity
  8
Symbol (ANSI)
100
AcDbLine
 10
10.18661122556971
 20
1.466788326435187
 30
0.0
 11
4.005936375727462
 21
1.466788326435187
 31
0.0
  0
MTEXT
  5
41E
330
3EF
100
AcDbEntity
  8
Symbol (ANSI)
100
AcDbMText
 10
6.207444514183306
 20
1.035289139319679
 30
0.0
 40
0.1200000014830762
 41
0.0
 71
     7
 72
     1
  1
2-56 X 1/2" S S S C SCREW
  7
Text Style29
 73
     1
 44
1.0
1001
ACAD
1000
MTEXTBEGIN
1070
    73
1070
     1
1070
    44
1040
1.0
1070
    74
1070
     0
1000
MTEXTEND
  0
MTEXT
  5
41F
330
3EF
100
AcDbEntity
  8
Symbol (ANSI)
100
AcDbMText
 10
5.052756090996531
 20
1.061496594547565
 30
0.0
 40
0.1200000014830762
 41
0.0
 71
     7
 72
     1
  1
screw5
  7
Text Style29
 73
     1
 44
1.0
1001
ACAD
1000
MTEXTBEGIN
1070
    73
1070
     1
1070
    44
1040
1.0
1070
    74
1070
     0
1000
MTEXTEND
  0
MTEXT
  5
420
330
3EF
100
AcDbEntity
  8
Symbol (ANSI)
100
AcDbMText
 10
4.765155420913672
 20
1.063830468111459
 30
0.0
 40
0.1200000014830762
 41
0.0
 71
     7
 72
     1
  1
1
  7
Text Style29
 73
     1
 44
1.0
1001
ACAD
1000
MTEXTBEGIN
1070
    73
1070
     1
1070
    44
1040
1.0
1070
    74
1070
     0
1000
MTEXTEND
  0
MTEXT
  5
421
330
3EF
100
AcDbEntity
  8
Symbol (ANSI)
100
AcDbMText
 10
4.244443336409059
 20
1.064024957575116
 30
0.0
 40
0.1200000014830762
 41
0.0
 71
     7
 72
     1
  1
7
  7
Text Style29
 73
     1
 44
1.0
1001
ACAD
1000
MTEXTBEGIN
1070
    73
1070
     1
1070
    44
1040
1.0
1070
    74
1070
     0
1000
MTEXTEND
  0
LINE
  5
422
330
3EF
100
AcDbEntity
  8
Symbol (ANSI)
100
AcDbLine
 10
10.18661122556971
 20
1.238279413554091
 30
0.0
 11
4.005936375727462
 21
1.238279413554091
 31
0.0
  0
MTEXT
  5
423
330
3EF
100
AcDbEntity
  8
Symbol (ANSI)
100
AcDbMText
 10
6.207444514183306
 20
0.8067802264385832
 30
0.0
 40
0.1200000014830762
 41
0.0
 71
     7
 72
     1
  1
2-56 X 5/8"  S S S C SCREW
  7
Text Style29
 73
     1
 44
1.0
1001
ACAD
1000
MTEXTBEGIN
1070
    73
1070
     1
1070
    44
1040
1.0
1070
    74
1070
     0
1000
MTEXTEND
  0
MTEXT
  5
424
330
3EF
100
AcDbEntity
  8
Symbol (ANSI)
100
AcDbMText
 10
5.052756090996531
 20
0.8318693672504377
 30
0.0
 40
0.1200000014830762
 41
0.0
 71
     7
 72
     1
  1
screw6
  7
Text Style29
 73
     1
 44
1.0
1001
ACAD
1000
MTEXTBEGIN
1070
    73
1070
     1
1070
    44
1040
1.0
1070
    74
1070
     0
1000
MTEXTEND
  0
MTEXT
  5
425
330
3EF
100
AcDbEntity
  8
Symbol (ANSI)
100
AcDbMText
 10
4.746508459791625
 20
0.8342518631802454
 30
0.0
 40
0.1200000014830762
 41
0.0
 71
     7
 72
     1
  1
2
  7
Text Style29
 73
     1
 44
1.0
1001
ACAD
1000
MTEXTBEGIN
1070
    73
1070
     1
1070
    44
1040
1.0
1070
    74
1070
     0
1000
MTEXTEND
  0
MTEXT
  5
426
330
3EF
100
AcDbEntity
  8
Symbol (ANSI)
100
AcDbMText
 10
4.240406365444491
 20
0.8314317659572077
 30
0.0
 40
0.1200000014830762
 41
0.0
 71
     7
 72
     1
  1
8
  7
Text Style29
 73
     1
 44
1.0
1001
ACAD
1000
MTEXTBEGIN
1070
    73
1070
     1
1070
    44
1040
1.0
1070
    74
1070
     0
1000
MTEXTEND
  0
LINE
  5
427
330
3EF
100
AcDbEntity
  8
Symbol (ANSI)
100
AcDbLine
 10
10.18661122556971
 20
1.009770500672996
 30
0.0
 11
4.005936375727462
 21
1.009770500672996
 31
0.0
  0
LINE
  5
428
330
3EF
100
AcDbEntity
  8
Symbol (ANSI)
100
AcDbLine
 10
10.18661122556971
 20
0.7812615877919004
 30
0.0
 11
4.005936375727462
 21
0.7812615877919004
 31
0.0
  0
LINE
  5
429
330
3EF
100
AcDbEntity
  8
Symbol (ANSI)
100
AcDbLine
 10
10.18661122556971
 20
2.609332890840664
 30
0.0
 11
10.18661122556971
 21
0.7812615877919004
 31
0.0
  0
LINE
  5
42A
330
3EF
100
AcDbEntity
  8
Symbol (ANSI)
100
AcDbLine
 10
6.155143210049447
 20
2.609332890840664
 30
0.0
 11
6.155143210049447
 21
0.7812615877919004
 31
0.0
  0
LINE
  5
42B
330
3EF
100
AcDbEntity
  8
Symbol (ANSI)
100
AcDbLine
 10
5.006990835091019
 20
2.609332890840664
 30
0.0
 11
5.006990835091019
 21
0.7812615877919004
 31
0.0
  0
LINE
  5
42C
330
3EF
100
AcDbEntity
  8
Symbol (ANSI)
100
AcDbLine
 10
4.541472096775164
 20
2.609332890840664
 30
0.0
 11
4.541472096775164
 21
0.7812615877919004
 31
0.0
  0
LINE
  5
42D
330
3EF
100
AcDbEntity
  8
Symbol (ANSI)
100
AcDbLine
 10
4.005936375727462
 20
2.609332890840664
 30
0.0
 11
4.005936375727462
 21
0.7812615877919004
 31
0.0
  0
ENDBLK
  5
3F1
330
3EF
100
AcDbEntity
  8
0
100
AcDbBlockEnd
  0
ENDSEC
  0
SECTION
  2
ENTITIES
  0
INSERT
  5
FE
330
37
100
AcDbEntity
  8
0
100
AcDbBlockReference
  2
Borders Default Border
 10
0.0
 20
0.0
 30
0.0
 41
0.5
 42
0.5
 43
0.5
  0
MTEXT
  5
FF
330
37
100
AcDbEntity
  8
Symbol (ANSI)
100
AcDbMText
 10
4.764002513759467
 20
4.001718859809066
 30
0.0
 40
0.0600000007415381
 41
0.4717828251245454
 71
     1
 72
     1
  1
{2 of 6 (OMT)}
  7
Note Text (ANSI)
 73
     1
 44
1.0
1001
ACAD
1000
MTEXTBEGIN
1070
    73
1070
     1
1070
    44
1040
1.0
1070
    74
1070
     0
1000
MTEXTEND
  0
LINE
  5
100
330
37
100
AcDbEntity
  8
Visible (ANSI)
100
AcDbLine
 10
1.938825055456744
 20
2.050822984708519
 30
0.0
 11
1.620627003922798
 21
1.86711125399978
 31
0.0
  0
LINE
  5
101
330
37
100
AcDbEntity
  8
Visible (ANSI)
100
AcDbLine
 10
1.938825055456744
 20
2.418246446125996
 30
0.0
 11
1.938825055456744
 21
2.050822984708519
 31
0.0
  0
LINE
  5
102
330
37
100
AcDbEntity
  8
Visible (ANSI)
100
AcDbLine
 10
1.620627003924048
 20
2.252497640196946
 30
0.0
 11
1.636183353108902
 21
2.243516177807463
 31
0.0
  0
LINE
  5
103
330
37
100
AcDbEntity
  8
Visible (ANSI)
100
AcDbLine
 10
1.938825055456744
 20
2.418246446125996
 30
0.0
 11
1.636183353108902
 21
2.243516177807463
 31
0.0
  0
LINE
  5
104
330
37
100
AcDbEntity
  8
Visible (ANSI)
100
AcDbLine
 10
1.620627003922798
 20
1.86711125399978
 30
0.0
 11
1.620627003922798
 21
2.216571790636848
 31
0.0
  0
LINE
  5
105
330
37
100
AcDbEntity
  8
Visible (ANSI)
100
AcDbLine
 10
1.620627003922798
 20
2.216571790636848
 30
0.0
 11
1.605070654737132
 21
2.225553253026799
 31
0.0
  0
ELLIPSE
  5
106
330
37
100
AcDbEntity
  8
Visible (ANSI)
100
AcDbEllipse
 10
1.620627003922797
 20
2.234534715417257
 30
0.0
 11
-0.0110000000000012
 21
-0.0190525588832571
 31
0.0
210
0.0
220
0.0
230
1.0
 40
0.5773502691896258
 41
0.7853981633976881
 42
2.35619449019258
  0
ELLIPSE
  5
107
330
37
100
AcDbEntity
  8
Visible (ANSI)
100
AcDbEllipse
 10
1.759130683343265
 20
2.154569578820097
 30
0.0
 11
0.015875
 21
0.027496306570156
 31
0.0
210
0.0
220
0.0
230
0.9999999999999998
 40
0.5773502691896258
 41
2.402388268605585
 42
7.022389692163811
  0
ELLIPSE
  5
108
330
37
100
AcDbEntity
  8
Visible (ANSI)
100
AcDbEllipse
 10
1.761252003686824
 20
2.153344833948705
 30
0.0
 11
-0.0173749999999982
 21
-0.0300943827815103
 31
0.0
210
0.0
220
0.0
230
1.0
 40
0.5773502691896259
 41
0.0
 42
6.283185307179376
  0
ELLIPSE
  5
109
330
37
100
AcDbEntity
  8
Visible (ANSI)
100
AcDbEllipse
 10
1.853972241714358
 20
2.099812779564182
 30
0.0
 11
-0.0229999999999976
 21
-0.0398371685740856
 31
0.0
210
0.0
220
0.0
230
0.9999999999999998
 40
0.5773502691896258
 41
0.0
 42
6.283185307179386
  0
ELLIPSE
  5
10A
330
37
100
AcDbEntity
  8
Visible (ANSI)
100
AcDbEllipse
 10
1.851850921370798
 20
2.101037524435574
 30
0.0
 11
0.0215
 21
0.0372390923627309
 31
0.0
210
0.0
220
0.0
230
1.0
 40
0.5773502691896258
 41
2.390496675344854
 42
7.03428128542451
  0
LINE
  5
10B
330
37
100
AcDbEntity
  8
Visible (ANSI)
100
AcDbLine
 10
1.938825055457004
 20
2.418246446126159
 30
0.0
 11
1.636183353109053
 21
2.243516177807624
 31
0.0
  0
LINE
  5
10C
330
37
100
AcDbEntity
  8
Visible (ANSI)
100
AcDbLine
 10
1.636183353109053
 20
2.243516177807624
 30
0.0
 11
1.620627003922518
 21
2.252497640197979
 31
0.0
  0
LINE
  5
10D
330
37
100
AcDbEntity
  8
Visible (ANSI)
100
AcDbLine
 10
1.302428959460248
 20
3.153093364878615
 30
0.0
 11
0.9842309079262994
 21
2.969381634169949
 31
0.0
  0
LINE
  5
10E
330
37
100
AcDbEntity
  8
Visible (ANSI)
100
AcDbLine
 10
1.620627003923055
 20
2.601958176834959
 30
0.0
 11
0.9842309079262994
 21
2.969381634169949
 31
0.0
  0
LINE
  5
10F
330
37
100
AcDbEntity
  8
Visible (ANSI)
100
AcDbLine
 10
1.938825055457004
 20
2.785669907543625
 30
0.0
 11
1.620627003923055
 21
2.601958176834959
 31
0.0
  0
LINE
  5
110
330
37
100
AcDbEntity
  8
Visible (ANSI)
100
AcDbLine
 10
1.302428959460248
 20
3.153093364878615
 30
0.0
 11
1.938825055457004
 21
2.785669907543625
 31
0.0
  0
LINE
  5
111
330
37
100
AcDbEntity
  8
Visible (ANSI)
100
AcDbLine
 10
1.938825055457004
 20
2.785669907543625
 30
0.0
 11
1.938825055457004
 21
2.418246446126159
 31
0.0
  0
LINE
  5
112
330
37
100
AcDbEntity
  8
Visible (ANSI)
100
AcDbLine
 10
1.620627003923055
 20
2.252497640197889
 30
0.0
 11
1.620627003923055
 21
2.601958176834959
 31
0.0
  0
ELLIPSE
  5
113
330
37
100
AcDbEntity
  8
Visible (ANSI)
100
AcDbEllipse
 10
1.620627003923055
 20
2.234534715417672
 30
0.0
 11
0.0109999999999024
 21
0.0190525588830843
 31
0.0
210
0.0
220
0.0
230
1.0
 40
0.577350269189692
 41
5.497787143773139
 42
7.06858347057709
  0
ELLIPSE
  5
114
330
37
100
AcDbEntity
  8
Visible (ANSI)
100
AcDbEllipse
 10
1.450648509871002
 20
2.77847485394027
 30
0.0
 11
-0.0444999999998824
 21
0.0000000000000001
 31
0.0
210
0.0
220
0.0
230
1.0
 40
0.5773502691896254
 41
2.389358557049117
 42
7.035419403723923
  0
ELLIPSE
  5
115
330
37
100
AcDbEntity
  8
Visible (ANSI)
100
AcDbEllipse
 10
1.310648510105947
 20
2.85930389149122
 30
0.0
 11
-0.0444999999998824
 21
0.0000000000000001
 31
0.0
210
0.0
220
0.0
230
1.0
 40
0.5773502691896254
 41
2.389358557049117
 42
7.035419403723923
  0
ELLIPSE
  5
116
330
37
100
AcDbEntity
  8
Visible (ANSI)
100
AcDbEllipse
 10
1.135293205505321
 20
2.960545324459357
 30
0.0
 11
-0.0799999999998803
 21
0.0000000000000002
 31
0.0
210
0.0
220
0.0
230
1.0
 40
0.5773502691896254
 41
2.374772983709228
 42
7.050004977063245
  0
ELLIPSE
  5
117
330
37
100
AcDbEntity
  8
Visible (ANSI)
100
AcDbEllipse
 10
1.1352932055055
 20
2.962994814202072
 30
0.0
 11
0.0829999999999451
 21
-0.0000000000000002
 31
0.0
210
0.0
220
0.0
230
1.0
 40
0.5773502691896257
 41
0.0
 42
6.283185307179583
  0
ELLIPSE
  5
118
330
37
100
AcDbEntity
  8
Visible (ANSI)
100
AcDbEllipse
 10
1.310648510105947
 20
2.861753381234024
 30
0.0
 11
0.0474999999999899
 21
-0.0000000000000001
 31
0.0
210
0.0
220
0.0
230
1.0
 40
0.5773502691896254
 41
0.0000000000000048
 42
6.283185307179586
  0
ELLIPSE
  5
119
330
37
100
AcDbEntity
  8
Visible (ANSI)
100
AcDbEllipse
 10
1.450648509871002
 20
2.780924343683119
 30
0.0
 11
0.0474999999999899
 21
-0.0000000000000001
 31
0.0
210
0.0
220
0.0
230
1.0
 40
0.5773502691896254
 41
0.0000000000000048
 42
6.283185307179586
  0
ELLIPSE
  5
11A
330
37
100
AcDbEntity
  8
Visible (ANSI)
100
AcDbEllipse
 10
1.621064780802294
 20
2.879314263751165
 30
0.0
 11
0.0829999999999451
 21
-0.0000000000000002
 31
0.0
210
0.0
220
0.0
230
1.0
 40
0.5773502691896255
 41
0.0
 42
6.283185307179584
  0
ELLIPSE
  5
11B
330
37
100
AcDbEntity
  8
Visible (ANSI)
100
AcDbEllipse
 10
1.621064780802115
 20
2.876864774008451
 30
0.0
 11
-0.0800000000000593
 21
0.0000000000000002
 31
0.0
210
0.0
220
0.0
230
1.0
 40
0.5773502691896254
 41
2.374772983706989
 42
7.050004977063287
  0
ELLIPSE
  5
11C
330
37
100
AcDbEntity
  8
Visible (ANSI)
100
AcDbEllipse
 10
1.06529320505615
 20
2.838481147266
 30
0.0
 11
-0.0237499999990119
 21
0.041136206678059
 31
0.0
210
0.0
220
0.0
230
1.0
 40
0.5773502691895596
 41
0.3405073991485816
 42
0.4862058754269293
  0
ELLIPSE
  5
11D
330
37
100
AcDbEntity
  8
Visible (ANSI)
100
AcDbEllipse
 10
1.851850921370824
 20
2.639925267848103
 30
0.0
 11
0.0214999999999991
 21
0.0372390923627208
 31
0.0
210
0.0
220
0.0
230
1.0
 40
0.5773502691896924
 41
2.390496675360347
 42
7.034281285410132
  0
ELLIPSE
  5
11E
330
37
100
AcDbEntity
  8
Visible (ANSI)
100
AcDbEllipse
 10
1.853972241714451
 20
2.638700522976701
 30
0.0
 11
0.0229999999999741
 21
0.0398371685740358
 31
0.0
210
0.0
220
0.0
230
1.0
 40
0.5773502691896921
 41
0.0
 42
6.283185307179377
  0
ELLIPSE
  5
11F
330
37
100
AcDbEntity
  8
Visible (ANSI)
100
AcDbEllipse
 10
1.761252003687002
 20
2.478104359823112
 30
0.0
 11
0.0173749999999737
 21
0.0300943827814611
 31
0.0
210
0.0
220
0.0
230
0.9999999999999998
 40
0.5773502691896921
 41
0.0
 42
6.283185307179381
  0
ELLIPSE
  5
120
330
37
100
AcDbEntity
  8
Visible (ANSI)
100
AcDbEllipse
 10
1.759130683343375
 20
2.479329104694469
 30
0.0
 11
0.0158750000000163
 21
0.0274963065701779
 31
0.0
210
0.0
220
0.0
230
0.9999999999999998
 40
0.5773502691896923
 41
2.402388268620205
 42
7.022389692147119
  0
POLYLINE
  5
121
330
37
100
AcDbEntity
  8
Visible (ANSI)
100
AcDb2dPolyline
 66
     1
 10
0.0
 20
0.0
 30
0.0
 70
   128
  0
VERTEX
  5
122
330
121
100
AcDbEntity
  8
Visible (ANSI)
100
AcDbVertex
100
AcDb2dVertex
 10
1.156514845396178
 20
2.940120296060548
 30
0.0
  0
VERTEX
  5
123
330
121
100
AcDbEntity
  8
Visible (ANSI)
100
AcDbVertex
100
AcDb2dVertex
 10
1.158027087595247
 20
2.94188424447691
 30
0.0
  0
VERTEX
  5
125
330
121
100
AcDbEntity
  8
Visible (ANSI)
100
AcDbVertex
100
AcDb2dVertex
 10
1.159726236133742
 20
2.943528326483325
 30
0.0
  0
VERTEX
  5
126
330
121
100
AcDbEntity
  8
Visible (ANSI)
100
AcDbVertex
100
AcDb2dVertex
 10
1.161425384672058
 20
2.944993586046894
 30
0.0
  0
VERTEX
  5
127
330
121
100
AcDbEntity
  8
Visible (ANSI)
100
AcDbVertex
100
AcDb2dVertex
 10
1.163277456578897
 20
2.946338806758353
 30
0.0
  0
VERTEX
  5
128
330
121
100
AcDbEntity
  8
Visible (ANSI)
100
AcDbVertex
100
AcDb2dVertex
 10
1.165112537000464
 20
2.947495318347398
 30
0.0
  0
VERTEX
  5
129
330
121
100
AcDbEntity
  8
Visible (ANSI)
100
AcDbVertex
100
AcDb2dVertex
 10
1.167117532275648
 20
2.948539665939597
 30
0.0
  0
VERTEX
  5
12A
330
121
100
AcDbEntity
  8
Visible (ANSI)
100
AcDbVertex
100
AcDb2dVertex
 10
1.169139519036284
 20
2.9494225310985
 30
0.0
  0
VERTEX
  5
12B
330
121
100
AcDbEntity
  8
Visible (ANSI)
100
AcDbVertex
100
AcDb2dVertex
 10
1.171280446194719
 20
2.950150102579096
 30
0.0
  0
VERTEX
  5
12C
330
121
100
AcDbEntity
  8
Visible (ANSI)
100
AcDbVertex
100
AcDb2dVertex
 10
1.173506330779874
 20
2.950728607456579
 30
0.0
  0
VERTEX
  5
12D
330
121
100
AcDbEntity
  8
Visible (ANSI)
100
AcDbVertex
100
AcDb2dVertex
 10
1.175732215365386
 20
2.951115222613072
 30
0.0
  0
VERTEX
  5
12E
330
121
100
AcDbEntity
  8
Visible (ANSI)
100
AcDbVertex
100
AcDb2dVertex
 10
1.178043057377438
 20
2.951325966002171
 30
0.0
  0
VERTEX
  5
12F
330
121
100
AcDbEntity
  8
Visible (ANSI)
100
AcDbVertex
100
AcDb2dVertex
 10
1.180268941962951
 20
2.951289504081044
 30
0.0
  0
VERTEX
  5
130
330
121
100
AcDbEntity
  8
Visible (ANSI)
100
AcDbVertex
100
AcDb2dVertex
 10
1.182545801004279
 20
2.951079718703535
 30
0.0
  0
VERTEX
  5
131
330
121
100
AcDbEntity
  8
Visible (ANSI)
100
AcDbVertex
100
AcDb2dVertex
 10
1.184788677074885
 20
2.950666164261338
 30
0.0
  0
VERTEX
  5
132
330
121
100
AcDbEntity
  8
Visible (ANSI)
100
AcDbVertex
100
AcDb2dVertex
 10
1.186980578689495
 20
2.950057673621131
 30
0.0
  0
VERTEX
  5
133
330
121
100
AcDbEntity
  8
Visible (ANSI)
100
AcDbVertex
100
AcDb2dVertex
 10
1.18912150584793
 20
2.949253307931718
 30
0.0
  0
VERTEX
  5
134
330
121
100
AcDbEntity
  8
Visible (ANSI)
100
AcDbVertex
100
AcDb2dVertex
 10
1.191160484093838
 20
2.948281481816661
 30
0.0
  0
VERTEX
  5
135
330
121
100
AcDbEntity
  8
Visible (ANSI)
100
AcDbVertex
100
AcDb2dVertex
 10
1.193131496398478
 20
2.947121732148526
 30
0.0
  0
VERTEX
  5
136
330
121
100
AcDbEntity
  8
Visible (ANSI)
100
AcDbVertex
100
AcDb2dVertex
 10
1.195051534246943
 20
2.945764440491035
 30
0.0
  0
VERTEX
  5
137
330
121
100
AcDbEntity
  8
Visible (ANSI)
100
AcDbVertex
100
AcDb2dVertex
 10
1.196835640212157
 20
2.944181115579404
 30
0.0
  0
VERTEX
  5
138
330
121
100
AcDbEntity
  8
Visible (ANSI)
100
AcDbVertex
100
AcDb2dVertex
 10
1.198619746177549
 20
2.942451253215367
 30
0.0
  0
VERTEX
  5
139
330
121
100
AcDbEntity
  8
Visible (ANSI)
100
AcDbVertex
100
AcDb2dVertex
 10
1.200318894715865
 20
2.940546362134096
 30
0.0
  0
VERTEX
  5
13A
330
121
100
AcDbEntity
  8
Visible (ANSI)
100
AcDbVertex
100
AcDb2dVertex
 10
1.20189910285656
 20
2.938487039584939
 30
0.0
  0
VERTEX
  5
13B
330
121
100
AcDbEntity
  8
Visible (ANSI)
100
AcDbVertex
100
AcDb2dVertex
 10
1.203360370599454
 20
2.936274530982899
 30
0.0
  0
SEQEND
  5
124
330
121
100
AcDbEntity
  8
Visible (ANSI)
  0
ELLIPSE
  5
13C
330
37
100
AcDbEntity
  8
Visible (ANSI)
100
AcDbEllipse
 10
1.385160445787569
 20
1.831593652729381
 30
0.0
 11
0.0215000000000048
 21
0.0372390923627286
 31
0.0
210
0.0
220
0.0
230
0.9999999999999998
 40
0.5773502691897088
 41
2.39049667534464
 42
7.03428128542474
  0
ELLIPSE
  5
13D
330
37
100
AcDbEntity
  8
Visible (ANSI)
100
AcDbEllipse
 10
1.387281766131128
 20
1.830368907857989
 30
0.0
 11
0.0230000000000027
 21
0.0398371685740831
 31
0.0
210
0.0
220
0.0
230
1.0
 40
0.5773502691897087
 41
0.0
 42
6.28318530717938
  0
ELLIPSE
  5
13E
330
37
100
AcDbEntity
  8
Visible (ANSI)
100
AcDbEllipse
 10
1.480002004158677
 20
1.990965071011551
 30
0.0
 11
0.0173750000000021
 21
0.0300943827815085
 31
0.0
210
0.0
220
0.0
230
1.0
 40
0.5773502691897085
 41
0.0
 42
6.283185307179377
  0
ELLIPSE
  5
13F
330
37
100
AcDbEntity
  8
Visible (ANSI)
100
AcDbEllipse
 10
1.477880683815118
 20
1.992189815882943
 30
0.0
 11
0.0158750000000035
 21
0.0274963065701543
 31
0.0
210
0.0
220
0.0
230
1.0
 40
0.5773502691897087
 41
2.402388268605333
 42
7.022389692164027
  0
ELLIPSE
  5
140
330
37
100
AcDbEntity
  8
Visible (ANSI)
100
AcDbEllipse
 10
0.9945682074603929
 20
2.150186920857701
 30
0.0
 11
0.0222499999999952
 21
-0.0385381304684109
 31
0.0
210
0.0
220
0.0
230
1.0
 40
0.5773502691895435
 41
2.389358557042617
 42
7.035419403726782
  0
ELLIPSE
  5
141
330
37
100
AcDbEntity
  8
Visible (ANSI)
100
AcDbEllipse
 10
0.9924468871168331
 20
2.14896217598631
 30
0.0
 11
0.0237499999999973
 21
-0.041136206679763
 31
0.0
210
0.0
220
0.0
230
1.0
 40
0.5773502691895436
 41
0.0
 42
6.28318530717938
  0
ELLIPSE
  5
142
330
37
100
AcDbEntity
  8
Visible (ANSI)
100
AcDbEllipse
 10
0.8524468873517767
 20
2.229791213537236
 30
0.0
 11
0.0237499999999973
 21
-0.041136206679763
 31
0.0
210
0.0
220
0.0
230
1.0
 40
0.5773502691895436
 41
0.0
 42
6.28318530717938
  0
ELLIPSE
  5
143
330
37
100
AcDbEntity
  8
Visible (ANSI)
100
AcDbEllipse
 10
0.9224468872343047
 20
2.155896210982805
 30
0.0
 11
0.017374999999998
 21
-0.0300943827815108
 31
0.0
210
0.0
220
0.0
230
1.0
 40
0.5773502691895436
 41
0.0
 42
6.283185307179377
  0
ELLIPSE
  5
144
330
37
100
AcDbEntity
  8
Visible (ANSI)
100
AcDbEllipse
 10
0.8545682076953365
 20
2.231015958408628
 30
0.0
 11
0.0222499999999952
 21
-0.0385381304684108
 31
0.0
210
0.0
220
0.0
230
1.0
 40
0.5773502691895437
 41
2.389358557042634
 42
7.035419403726792
  0
ELLIPSE
  5
145
330
37
100
AcDbEntity
  8
Visible (ANSI)
100
AcDbEllipse
 10
1.620627003922726
 20
2.234534715417197
 30
0.0
 11
-0.0110000000000024
 21
-0.0190525588832565
 31
0.0
210
0.0
220
0.0
230
1.0
 40
0.5773502691897087
 41
5.497787143782197
 42
7.068583470577103
  0
LINE
  5
146
330
37
100
AcDbEntity
  8
Visible (ANSI)
100
AcDbLine
 10
1.60507065473662
 20
2.225553253026994
 30
0.0
 11
1.302428952388731
 21
2.050822984708486
 31
0.0
  0
LINE
  5
147
330
37
100
AcDbEntity
  8
Visible (ANSI)
100
AcDbLine
 10
1.30242895238873
 20
1.683399523291004
 30
0.0
 11
1.302428952388731
 21
2.050822984708486
 31
0.0
  0
LINE
  5
148
330
37
100
AcDbEntity
  8
Visible (ANSI)
100
AcDbLine
 10
1.620627003922724
 20
1.867111253999716
 30
0.0
 11
1.30242895238873
 21
1.683399523291004
 31
0.0
  0
LINE
  5
149
330
37
100
AcDbEntity
  8
Visible (ANSI)
100
AcDbLine
 10
1.620627003922725
 20
2.216571790636788
 30
0.0
 11
1.620627003922724
 21
1.867111253999716
 31
0.0
  0
LINE
  5
14A
330
37
100
AcDbEntity
  8
Visible (ANSI)
100
AcDbLine
 10
0.9159068566151116
 20
2.258876434004026
 30
0.0
 11
0.9159068566151116
 21
2.273981620751189
 31
0.0
  0
LINE
  5
14B
330
37
100
AcDbEntity
  8
Visible (ANSI)
100
AcDbLine
 10
0.9159068566151116
 20
2.273981620751189
 30
0.0
 11
0.6660328563919934
 21
2.418246442043537
 31
0.0
  0
LINE
  5
14C
330
37
100
AcDbEntity
  8
Visible (ANSI)
100
AcDbLine
 10
0.6660328563919934
 20
2.418246442043537
 30
0.0
 11
0.6660328563919919
 21
2.050822980626056
 31
0.0
  0
LINE
  5
14D
330
37
100
AcDbEntity
  8
Visible (ANSI)
100
AcDbLine
 10
0.6660328563919919
 20
2.050822980626056
 30
0.0
 11
1.30242895238873
 21
1.683399523291004
 31
0.0
  0
LINE
  5
14E
330
37
100
AcDbEntity
  8
Visible (ANSI)
100
AcDbLine
 10
1.302428952388731
 20
2.050822984708486
 30
0.0
 11
0.9289869178534988
 21
2.266429843874187
 31
0.0
  0
LINE
  5
14F
330
37
100
AcDbEntity
  8
Visible (ANSI)
100
AcDbLine
 10
0.9289869178534987
 20
2.266429843874187
 30
0.0
 11
0.9289869178534985
 21
2.251324657127024
 31
0.0
  0
LINE
  5
150
330
37
100
AcDbEntity
  8
Visible (ANSI)
100
AcDbLine
 10
0.9289869178534985
 20
2.251324657127024
 30
0.0
 11
0.9159068566151116
 21
2.258876434004026
 31
0.0
  0
LINE
  5
151
330
37
100
AcDbEntity
  8
Visible (ANSI)
100
AcDbLine
 10
1.605070654737109
 20
2.225553253026713
 30
0.0
 11
1.620627003922725
 21
2.216571790636788
 31
0.0
  0
LINE
  5
152
330
37
100
AcDbEntity
  8
Visible (ANSI)
100
AcDbLine
 10
0.9159068566151116
 20
2.273981620751189
 30
0.0
 11
0.9289869178536587
 21
2.281533397628279
 31
0.0
  0
LINE
  5
153
330
37
100
AcDbEntity
  8
Visible (ANSI)
100
AcDbLine
 10
0.9289869178534988
 20
2.266428210881023
 30
0.0
 11
0.9159068566151116
 21
2.258876434004026
 31
0.0
  0
ELLIPSE
  5
154
330
37
100
AcDbEntity
  8
Visible (ANSI)
100
AcDbEllipse
 10
0.9245682075778645
 20
2.157120955854197
 30
0.0
 11
0.0158749999999966
 21
-0.0274963065701583
 31
0.0
210
0.0
220
0.0
230
1.0
 40
0.5773502691895435
 41
2.402388268605795
 42
7.022389692163569
  0
LINE
  5
155
330
37
100
AcDbEntity
  8
Visible (ANSI)
100
AcDbLine
 10
1.605070654737563
 20
2.225553253026788
 30
0.0
 11
1.302428952389306
 21
2.050822984708069
 31
0.0
  0
LINE
  5
156
330
37
100
AcDbEntity
  8
Visible (ANSI)
100
AcDbLine
 10
0.9289869178536219
 20
2.266429843874025
 30
0.0
 11
1.302428952389306
 21
2.050822984708069
 31
0.0
  0
LINE
  5
157
330
37
100
AcDbEntity
  8
Visible (ANSI)
100
AcDbLine
 10
0.9842309079261777
 20
2.969381634170416
 30
0.0
 11
0.6660328563917965
 21
2.785669903461482
 31
0.0
  0
LINE
  5
158
330
37
100
AcDbEntity
  8
Visible (ANSI)
100
AcDbLine
 10
1.302428952389308
 20
2.418246446125983
 30
0.0
 11
0.6660328563917965
 21
2.785669903461476
 31
0.0
  0
LINE
  5
159
330
37
100
AcDbEntity
  8
Visible (ANSI)
100
AcDbLine
 10
1.620627003923689
 20
2.601958176834923
 30
0.0
 11
1.302428952389308
 21
2.418246446125985
 31
0.0
  0
LINE
  5
15A
330
37
100
AcDbEntity
  8
Visible (ANSI)
100
AcDbLine
 10
0.9842309079261777
 20
2.969381634170416
 30
0.0
 11
1.620627003923689
 21
2.601958176834923
 31
0.0
  0
LINE
  5
15B
330
37
100
AcDbEntity
  8
Visible (ANSI)
100
AcDbLine
 10
0.9289869178536232
 20
2.281533397628044
 30
0.0
 11
0.91590685661522
 21
2.273981620751038
 31
0.0
  0
LINE
  5
15C
330
37
100
AcDbEntity
  8
Visible (ANSI)
100
AcDbLine
 10
0.6660328563917965
 20
2.418246442043559
 30
0.0
 11
0.91590685661522
 21
2.273981620751035
 31
0.0
  0
LINE
  5
15D
330
37
100
AcDbEntity
  8
Visible (ANSI)
100
AcDbLine
 10
0.91590685661522
 20
2.273981620751038
 30
0.0
 11
0.91590685661522
 21
2.28908680749822
 31
0.0
  0
LINE
  5
15E
330
37
100
AcDbEntity
  8
Visible (ANSI)
100
AcDbLine
 10
0.91590685661522
 20
2.28908680749822
 30
0.0
 11
0.9289869178536219
 21
2.28153503062121
 31
0.0
  0
LINE
  5
15F
330
37
100
AcDbEntity
  8
Visible (ANSI)
100
AcDbLine
 10
0.9289869178536219
 20
2.28153503062121
 30
0.0
 11
0.9289869178536219
 21
2.266429843874025
 31
0.0
  0
LINE
  5
160
330
37
100
AcDbEntity
  8
Visible (ANSI)
100
AcDbLine
 10
1.302428952389306
 20
2.050822984708063
 30
0.0
 11
1.302428952389309
 21
2.418246446125983
 31
0.0
  0
LINE
  5
161
330
37
100
AcDbEntity
  8
Visible (ANSI)
100
AcDbLine
 10
0.6660328563917965
 20
2.785669903461476
 30
0.0
 11
0.6660328563917936
 21
2.418246442043562
 31
0.0
  0
LINE
  5
162
330
37
100
AcDbEntity
  8
Visible (ANSI)
100
AcDbLine
 10
1.620627003923689
 20
2.601958176834923
 30
0.0
 11
1.620627003923686
 21
2.252497640197439
 31
0.0
  0
ELLIPSE
  5
163
330
37
100
AcDbEntity
  8
Visible (ANSI)
100
AcDbEllipse
 10
1.620627003923686
 20
2.234534715417003
 30
0.0
 11
0.0110000000000158
 21
0.0190525588832758
 31
0.0
210
0.0
220
0.0
230
1.0
 40
0.5773502691897053
 41
0.7853981633976588
 42
2.3561944901928
  0
ELLIPSE
  5
164
330
37
100
AcDbEntity
  8
Visible (ANSI)
100
AcDbEllipse
 10
1.310648510106323
 20
2.697645816389614
 30
0.0
 11
-0.0444999999999993
 21
0.0000000000000001
 31
0.0
210
0.0
220
0.0
230
1.0
 40
0.5773502691896264
 41
2.389358557042427
 42
7.035419403726997
  0
ELLIPSE
  5
165
330
37
100
AcDbEntity
  8
Visible (ANSI)
100
AcDbEllipse
 10
1.310648510106324
 20
2.700095306132395
 30
0.0
 11
0.0475000000000011
 21
-0.0000000000000002
 31
0.0
210
0.0
220
0.0
230
1.0
 40
0.5773502691896264
 41
0.0000000000000059
 42
6.283185307179586
  0
ELLIPSE
  5
166
330
37
100
AcDbEntity
  8
Visible (ANSI)
100
AcDbEllipse
 10
1.175587508654929
 20
2.622117840759062
 30
0.0
 11
0.0810000000000011
 21
-0.0000000000000003
 31
0.0
210
0.0
220
0.0
230
1.0
 40
0.5773502691896264
 41
0.0
 42
6.283185307179584
  0
ELLIPSE
  5
167
330
37
100
AcDbEntity
  8
Visible (ANSI)
100
AcDbEllipse
 10
0.9952932046091051
 20
2.882165775998449
 30
0.0
 11
0.0810000000000011
 21
-0.0000000000000003
 31
0.0
210
0.0
220
0.0
230
1.0
 40
0.5773502691896264
 41
0.0
 42
6.283185307179584
  0
ELLIPSE
  5
168
330
37
100
AcDbEntity
  8
Visible (ANSI)
100
AcDbEllipse
 10
1.170648510341101
 20
2.780924343683418
 30
0.0
 11
0.0475000000000011
 21
-0.0000000000000002
 31
0.0
210
0.0
220
0.0
230
1.0
 40
0.5773502691896264
 41
0.0000000000000059
 42
6.283185307179586
  0
ELLIPSE
  5
169
330
37
100
AcDbEntity
  8
Visible (ANSI)
100
AcDbEllipse
 10
1.175587508654929
 20
2.619668351016278
 30
0.0
 11
-0.0779999999999998
 21
0.0000000000000003
 31
0.0
210
0.0
220
0.0
230
1.0
 40
0.5773502691896264
 41
2.375244957046575
 42
7.049533003722805
  0
ELLIPSE
  5
16A
330
37
100
AcDbEntity
  8
Visible (ANSI)
100
AcDbEllipse
 10
1.170648510341098
 20
2.778474853940636
 30
0.0
 11
-0.0444999999999993
 21
0.0000000000000001
 31
0.0
210
0.0
220
0.0
230
1.0
 40
0.5773502691896264
 41
2.389358557042427
 42
7.035419403726997
  0
ELLIPSE
  5
16B
330
37
100
AcDbEntity
  8
Visible (ANSI)
100
AcDbEllipse
 10
0.9952932046091035
 20
2.879716286255665
 30
0.0
 11
-0.0779999999999992
 21
0.0000000000000003
 31
0.0
210
0.0
220
0.0
230
1.0
 40
0.5773502691896267
 41
2.375244957046586
 42
7.049533003722844
  0
ELLIPSE
  5
16C
330
37
100
AcDbEntity
  8
Visible (ANSI)
100
AcDbEllipse
 10
0.8545682076953669
 20
2.392674033510448
 30
0.0
 11
0.022249999999996
 21
-0.0385381304684102
 31
0.0
210
0.0
220
0.0
230
0.9999999999999998
 40
0.5773502691895456
 41
2.389358557042218
 42
7.035419403727257
  0
ELLIPSE
  5
16D
330
37
100
AcDbEntity
  8
Visible (ANSI)
100
AcDbEllipse
 10
0.8524468873518076
 20
2.391449288639057
 30
0.0
 11
0.0237499999999983
 21
-0.0411362066797624
 31
0.0
210
0.0
220
0.0
230
1.0
 40
0.5773502691895456
 41
0.0
 42
6.283185307179377
  0
ELLIPSE
  5
16E
330
37
100
AcDbEntity
  8
Visible (ANSI)
100
AcDbEllipse
 10
0.9924468871170329
 20
2.310620251088032
 30
0.0
 11
0.0237499999999983
 21
-0.0411362066797624
 31
0.0
210
0.0
220
0.0
230
1.0
 40
0.5773502691895456
 41
0.0
 42
6.283185307179377
  0
ELLIPSE
  5
16F
330
37
100
AcDbEntity
  8
Visible (ANSI)
100
AcDbEllipse
 10
0.9224468872344216
 20
2.384515253642553
 30
0.0
 11
0.0173749999999989
 21
-0.0300943827815106
 31
0.0
210
0.0
220
0.0
230
1.0
 40
0.5773502691895456
 41
0.0
 42
6.283185307179381
  0
ELLIPSE
  5
170
330
37
100
AcDbEntity
  8
Visible (ANSI)
100
AcDbEllipse
 10
0.9945682074605922
 20
2.311844995959422
 30
0.0
 11
0.022249999999996
 21
-0.0385381304684102
 31
0.0
210
0.0
220
0.0
230
0.9999999999999998
 40
0.5773502691895456
 41
2.389358557042218
 42
7.035419403727257
  0
ELLIPSE
  5
171
330
37
100
AcDbEntity
  8
Visible (ANSI)
100
AcDbEllipse
 10
1.063171884713656
 20
2.837256402393723
 30
0.0
 11
-0.0239999999998359
 21
0.041569219381379
 31
0.0
210
0.0
220
0.0
230
1.0
 40
0.5773502691895457
 41
0.3157711095145017
 42
0.4895528159967743
  0
ELLIPSE
  5
172
330
37
100
AcDbEntity
  8
Visible (ANSI)
100
AcDbEllipse
 10
1.38516044578825
 20
2.370481396141646
 30
0.0
 11
0.0215000000000322
 21
0.0372390923627738
 31
0.0
210
0.0
220
0.0
230
1.0
 40
0.5773502691897053
 41
2.390496675344966
 42
7.034281285424432
  0
ELLIPSE
  5
173
330
37
100
AcDbEntity
  8
Visible (ANSI)
100
AcDbEllipse
 10
1.387281766131811
 20
2.369256651270255
 30
0.0
 11
0.0230000000000296
 21
0.0398371685741271
 31
0.0
210
0.0
220
0.0
230
1.0
 40
0.5773502691897054
 41
0.0
 42
6.283185307179373
  0
ELLIPSE
  5
174
330
37
100
AcDbEntity
  8
Visible (ANSI)
100
AcDbEllipse
 10
1.480002004159469
 20
2.315724596885659
 30
0.0
 11
0.0173750000000026
 21
0.0300943827815074
 31
0.0
210
0.0
220
0.0
230
1.0
 40
0.5773502691897052
 41
0.0
 42
6.283185307179379
  0
ELLIPSE
  5
175
330
37
100
AcDbEntity
  8
Visible (ANSI)
100
AcDbEllipse
 10
1.47788068381591
 20
2.316949341757049
 30
0.0
 11
0.015875000000004
 21
0.0274963065701532
 31
0.0
210
0.0
220
0.0
230
1.0
 40
0.5773502691897054
 41
2.402388268605785
 42
7.022389692163689
  0
POLYLINE
  5
176
330
37
100
AcDbEntity
  8
Visible (ANSI)
100
AcDb2dPolyline
 66
     1
 10
0.0
 20
0.0
 30
0.0
 70
   128
  0
VERTEX
  5
177
330
176
100
AcDbEntity
  8
Visible (ANSI)
100
AcDbVertex
100
AcDb2dVertex
 10
1.007186798466744
 20
2.853461929198275
 30
0.0
  0
VERTEX
  5
178
330
176
100
AcDbEntity
  8
Visible (ANSI)
100
AcDbVertex
100
AcDb2dVertex
 10
1.008486381606654
 20
2.856017290987439
 30
0.0
  0
VERTEX
  5
17A
330
176
100
AcDbEntity
  8
Visible (ANSI)
100
AcDbVertex
100
AcDb2dVertex
 10
1.010044711550602
 20
2.858449811740742
 30
0.0
  0
VERTEX
  5
17B
330
176
100
AcDbEntity
  8
Visible (ANSI)
100
AcDbVertex
100
AcDb2dVertex
 10
1.011831250500821
 20
2.860734502923426
 30
0.0
  0
VERTEX
  5
17C
330
176
100
AcDbEntity
  8
Visible (ANSI)
100
AcDbVertex
100
AcDb2dVertex
 10
1.013807209667251
 20
2.86285387483644
 30
0.0
  0
VERTEX
  5
17D
330
176
100
AcDbEntity
  8
Visible (ANSI)
100
AcDbVertex
100
AcDb2dVertex
 10
1.015938657933021
 20
2.864790789849991
 30
0.0
  0
VERTEX
  5
17E
330
176
100
AcDbEntity
  8
Visible (ANSI)
100
AcDbVertex
100
AcDb2dVertex
 10
1.018187418384073
 20
2.866529337786632
 30
0.0
  0
VERTEX
  5
17F
330
176
100
AcDbEntity
  8
Visible (ANSI)
100
AcDbVertex
100
AcDb2dVertex
 10
1.020518495861546
 20
2.868051766691636
 30
0.0
  0
VERTEX
  5
180
330
176
100
AcDbEntity
  8
Visible (ANSI)
100
AcDbVertex
100
AcDb2dVertex
 10
1.02293873922832
 20
2.869365709522337
 30
0.0
  0
VERTEX
  5
181
330
176
100
AcDbEntity
  8
Visible (ANSI)
100
AcDbVertex
100
AcDb2dVertex
 10
1.025496756328633
 20
2.870496777521017
 30
0.0
  0
VERTEX
  5
182
330
176
100
AcDbEntity
  8
Visible (ANSI)
100
AcDbVertex
100
AcDb2dVertex
 10
1.028165632915129
 20
2.871422074210728
 30
0.0
  0
VERTEX
  5
183
330
176
100
AcDbEntity
  8
Visible (ANSI)
100
AcDbVertex
100
AcDb2dVertex
 10
1.030914576068858
 20
2.872118916272093
 30
0.0
  0
VERTEX
  5
184
330
176
100
AcDbEntity
  8
Visible (ANSI)
100
AcDbVertex
100
AcDb2dVertex
 10
1.033713847579168
 20
2.872564003067028
 30
0.0
  0
VERTEX
  5
185
330
176
100
AcDbEntity
  8
Visible (ANSI)
100
AcDbVertex
100
AcDb2dVertex
 10
1.036533609675915
 20
2.872735202731575
 30
0.0
  0
VERTEX
  5
186
330
176
100
AcDbEntity
  8
Visible (ANSI)
100
AcDbVertex
100
AcDb2dVertex
 10
1.03934180835335
 20
2.872616461386554
 30
0.0
  0
VERTEX
  5
187
330
176
100
AcDbEntity
  8
Visible (ANSI)
100
AcDbVertex
100
AcDb2dVertex
 10
1.042111467139437
 20
2.872215503000388
 30
0.0
  0
VERTEX
  5
188
330
176
100
AcDbEntity
  8
Visible (ANSI)
100
AcDbVertex
100
AcDb2dVertex
 10
1.044814074686754
 20
2.871540391635619
 30
0.0
  0
VERTEX
  5
189
330
176
100
AcDbEntity
  8
Visible (ANSI)
100
AcDbVertex
100
AcDb2dVertex
 10
1.047424305551386
 20
2.870599804482208
 30
0.0
  0
VERTEX
  5
18A
330
176
100
AcDbEntity
  8
Visible (ANSI)
100
AcDbVertex
100
AcDb2dVertex
 10
1.049912587455155
 20
2.869402419328869
 30
0.0
  0
VERTEX
  5
18B
330
176
100
AcDbEntity
  8
Visible (ANSI)
100
AcDbVertex
100
AcDb2dVertex
 10
1.052279722059324
 20
2.867943793995616
 30
0.0
  0
VERTEX
  5
18C
330
176
100
AcDbEntity
  8
Visible (ANSI)
100
AcDbVertex
100
AcDb2dVertex
 10
1.054559211130491
 20
2.866205256836605
 30
0.0
  0
VERTEX
  5
18D
330
176
100
AcDbEntity
  8
Visible (ANSI)
100
AcDbVertex
100
AcDb2dVertex
 10
1.056736009778608
 20
2.864205099286836
 30
0.0
  0
VERTEX
  5
18E
330
176
100
AcDbEntity
  8
Visible (ANSI)
100
AcDbVertex
100
AcDb2dVertex
 10
1.058788716862782
 20
2.861960395507833
 30
0.0
  0
VERTEX
  5
18F
330
176
100
AcDbEntity
  8
Visible (ANSI)
100
AcDbVertex
100
AcDb2dVertex
 10
1.060699117145632
 20
2.859488832788534
 30
0.0
  0
VERTEX
  5
190
330
176
100
AcDbEntity
  8
Visible (ANSI)
100
AcDbVertex
100
AcDb2dVertex
 10
1.062449153025626
 20
2.856809415683821
 30
0.0
  0
SEQEND
  5
179
330
176
100
AcDbEntity
  8
Visible (ANSI)
  0
ELLIPSE
  5
191
330
37
100
AcDbEntity
  8
Visible (ANSI)
100
AcDbEllipse
 10
0.9245682075779837
 20
2.385739998513938
 30
0.0
 11
0.0158749999999951
 21
-0.0274963065701541
 31
0.0
210
0.0
220
0.0
230
1.0
 40
0.5773502691895457
 41
2.402388268605454
 42
7.022389692164169
  0
POLYLINE
  5
192
330
37
100
AcDbEntity
  8
Visible (ANSI)
100
AcDb2dPolyline
 66
     1
 10
0.0
 20
0.0
 30
0.0
 70
   128
  0
VERTEX
  5
193
330
192
100
AcDbEntity
  8
Visible (ANSI)
100
AcDbVertex
100
AcDb2dVertex
 10
0.9784204000271172
 20
2.836426260956989
 30
0.0
  0
VERTEX
  5
194
330
192
100
AcDbEntity
  8
Visible (ANSI)
100
AcDbVertex
100
AcDb2dVertex
 10
0.978899595473803
 20
2.836524071150183
 30
0.0
  0
VERTEX
  5
196
330
192
100
AcDbEntity
  8
Visible (ANSI)
100
AcDbVertex
100
AcDb2dVertex
 10
0.9793838128888166
 20
2.836609902239051
 30
0.0
  0
VERTEX
  5
197
330
192
100
AcDbEntity
  8
Visible (ANSI)
100
AcDbVertex
100
AcDb2dVertex
 10
0.9798729112460172
 20
2.836683731081296
 30
0.0
  0
VERTEX
  5
198
330
192
100
AcDbEntity
  8
Visible (ANSI)
100
AcDbVertex
100
AcDb2dVertex
 10
0.9803667532105361
 20
2.83674554359439
 30
0.0
  0
VERTEX
  5
199
330
192
100
AcDbEntity
  8
Visible (ANSI)
100
AcDbVertex
100
AcDb2dVertex
 10
0.9808651907411885
 20
2.836795326334211
 30
0.0
  0
VERTEX
  5
19A
330
192
100
AcDbEntity
  8
Visible (ANSI)
100
AcDbVertex
100
AcDb2dVertex
 10
0.981368086041291
 20
2.83683307081369
 30
0.0
  0
VERTEX
  5
19B
330
192
100
AcDbEntity
  8
Visible (ANSI)
100
AcDbVertex
100
AcDb2dVertex
 10
0.9818752886695181
 20
2.836858771155725
 30
0.0
  0
VERTEX
  5
19C
330
192
100
AcDbEntity
  8
Visible (ANSI)
100
AcDbVertex
100
AcDb2dVertex
 10
0.982386657690791
 20
2.836872424628309
 30
0.0
  0
VERTEX
  5
19D
330
192
100
AcDbEntity
  8
Visible (ANSI)
100
AcDbVertex
100
AcDb2dVertex
 10
0.9829020741883937
 20
2.836874053893542
 30
0.0
  0
VERTEX
  5
19E
330
192
100
AcDbEntity
  8
Visible (ANSI)
100
AcDbVertex
100
AcDb2dVertex
 10
0.9834213238392139
 20
2.83686362759713
 30
0.0
  0
VERTEX
  5
19F
330
192
100
AcDbEntity
  8
Visible (ANSI)
100
AcDbVertex
100
AcDb2dVertex
 10
0.9839442892030444
 20
2.836841172025077
 30
0.0
  0
VERTEX
  5
1A0
330
192
100
AcDbEntity
  8
Visible (ANSI)
100
AcDbVertex
100
AcDb2dVertex
 10
0.9844708199296222
 20
2.836806701710571
 30
0.0
  0
VERTEX
  5
1A1
330
192
100
AcDbEntity
  8
Visible (ANSI)
100
AcDbVertex
100
AcDb2dVertex
 10
0.985000765668685
 20
2.836760231186797
 30
0.0
  0
VERTEX
  5
1A2
330
192
100
AcDbEntity
  8
Visible (ANSI)
100
AcDbVertex
100
AcDb2dVertex
 10
0.9855339678548551
 20
2.836701788468628
 30
0.0
  0
VERTEX
  5
1A3
330
192
100
AcDbEntity
  8
Visible (ANSI)
100
AcDbVertex
100
AcDb2dVertex
 10
0.9860702761378696
 20
2.836631388089249
 30
0.0
  0
VERTEX
  5
1A4
330
192
100
AcDbEntity
  8
Visible (ANSI)
100
AcDbVertex
100
AcDb2dVertex
 10
0.9866095322287907
 20
2.836549065470946
 30
0.0
  0
VERTEX
  5
1A5
330
192
100
AcDbEntity
  8
Visible (ANSI)
100
AcDbVertex
100
AcDb2dVertex
 10
0.987151580977075
 20
2.83645485028094
 30
0.0
  0
VERTEX
  5
1A6
330
192
100
AcDbEntity
  8
Visible (ANSI)
100
AcDbVertex
100
AcDb2dVertex
 10
0.9876962640937843
 20
2.836348777941516
 30
0.0
  0
VERTEX
  5
1A7
330
192
100
AcDbEntity
  8
Visible (ANSI)
100
AcDbVertex
100
AcDb2dVertex
 10
0.9882434255047446
 20
2.836230889310819
 30
0.0
  0
VERTEX
  5
1A8
330
192
100
AcDbEntity
  8
Visible (ANSI)
100
AcDbVertex
100
AcDb2dVertex
 10
0.9887929047517852
 20
2.836101224580419
 30
0.0
  0
VERTEX
  5
1A9
330
192
100
AcDbEntity
  8
Visible (ANSI)
100
AcDbVertex
100
AcDb2dVertex
 10
0.9893445416531747
 20
2.835959831349303
 30
0.0
  0
VERTEX
  5
1AA
330
192
100
AcDbEntity
  8
Visible (ANSI)
100
AcDbVertex
100
AcDb2dVertex
 10
0.9898981775036908
 20
2.835806760840362
 30
0.0
  0
VERTEX
  5
1AB
330
192
100
AcDbEntity
  8
Visible (ANSI)
100
AcDbVertex
100
AcDb2dVertex
 10
0.9904536516597868
 20
2.835642066248044
 30
0.0
  0
VERTEX
  5
1AC
330
192
100
AcDbEntity
  8
Visible (ANSI)
100
AcDbVertex
100
AcDb2dVertex
 10
0.9910108013086833
 20
2.835465805536084
 30
0.0
  0
SEQEND
  5
195
330
192
100
AcDbEntity
  8
Visible (ANSI)
  0
POLYLINE
  5
1AD
330
37
100
AcDbEntity
  8
Visible (ANSI)
100
AcDb2dPolyline
 66
     1
 10
0.0
 20
0.0
 30
0.0
 70
   128
  0
VERTEX
  5
1AE
330
1AD
100
AcDbEntity
  8
Visible (ANSI)
100
AcDbVertex
100
AcDb2dVertex
 10
0.9824317795678936
 20
2.839029393207929
 30
0.0
  0
VERTEX
  5
1AF
330
1AD
100
AcDbEntity
  8
Visible (ANSI)
100
AcDbVertex
100
AcDb2dVertex
 10
0.9833877337093257
 20
2.839916879666382
 30
0.0
  0
VERTEX
  5
1B1
330
1AD
100
AcDbEntity
  8
Visible (ANSI)
100
AcDbVertex
100
AcDb2dVertex
 10
0.984397714042705
 20
2.840724249960938
 30
0.0
  0
VERTEX
  5
1B2
330
1AD
100
AcDbEntity
  8
Visible (ANSI)
100
AcDbVertex
100
AcDb2dVertex
 10
0.9854595650052262
 20
2.841449749684954
 30
0.0
  0
VERTEX
  5
1B3
330
1AD
100
AcDbEntity
  8
Visible (ANSI)
100
AcDbVertex
100
AcDb2dVertex
 10
0.9865711490457124
 20
2.842091883767831
 30
0.0
  0
VERTEX
  5
1B4
330
1AD
100
AcDbEntity
  8
Visible (ANSI)
100
AcDbVertex
100
AcDb2dVertex
 10
0.9877301085960514
 20
2.84264929522248
 30
0.0
  0
VERTEX
  5
1B5
330
1AD
100
AcDbEntity
  8
Visible (ANSI)
100
AcDbVertex
100
AcDb2dVertex
 10
0.9889339878742585
 20
2.843120816659713
 30
0.0
  0
VERTEX
  5
1B6
330
1AD
100
AcDbEntity
  8
Visible (ANSI)
100
AcDbVertex
100
AcDb2dVertex
 10
0.9901803193375048
 20
2.843505535974368
 30
0.0
  0
VERTEX
  5
1B7
330
1AD
100
AcDbEntity
  8
Visible (ANSI)
100
AcDbVertex
100
AcDb2dVertex
 10
0.991466408174382
 20
2.843802663078025
 30
0.0
  0
VERTEX
  5
1B8
330
1AD
100
AcDbEntity
  8
Visible (ANSI)
100
AcDbVertex
100
AcDb2dVertex
 10
0.9927896061957286
 20
2.844011683608029
 30
0.0
  0
VERTEX
  5
1B9
330
1AD
100
AcDbEntity
  8
Visible (ANSI)
100
AcDbVertex
100
AcDb2dVertex
 10
0.9941470706684835
 20
2.844132229974159
 30
0.0
  0
VERTEX
  5
1BA
330
1AD
100
AcDbEntity
  8
Visible (ANSI)
100
AcDbVertex
100
AcDb2dVertex
 10
0.9955358911027818
 20
2.844164131647843
 30
0.0
  0
VERTEX
  5
1BB
330
1AD
100
AcDbEntity
  8
Visible (ANSI)
100
AcDbVertex
100
AcDb2dVertex
 10
0.9969531817963938
 20
2.844107482341022
 30
0.0
  0
VERTEX
  5
1BC
330
1AD
100
AcDbEntity
  8
Visible (ANSI)
100
AcDbVertex
100
AcDb2dVertex
 10
0.9983958546059803
 20
2.843962498157913
 30
0.0
  0
VERTEX
  5
1BD
330
1AD
100
AcDbEntity
  8
Visible (ANSI)
100
AcDbVertex
100
AcDb2dVertex
 10
0.9998609007749683
 20
2.843729677326665
 30
0.0
  0
VERTEX
  5
1BE
330
1AD
100
AcDbEntity
  8
Visible (ANSI)
100
AcDbVertex
100
AcDb2dVertex
 10
1.001345158351647
 20
2.843409658670316
 30
0.0
  0
VERTEX
  5
1BF
330
1AD
100
AcDbEntity
  8
Visible (ANSI)
100
AcDbVertex
100
AcDb2dVertex
 10
1.002845426838968
 20
2.843003279115659
 30
0.0
  0
VERTEX
  5
1C0
330
1AD
100
AcDbEntity
  8
Visible (ANSI)
100
AcDbVertex
100
AcDb2dVertex
 10
1.00435856116996
 20
2.84251163429087
 30
0.0
  0
VERTEX
  5
1C1
330
1AD
100
AcDbEntity
  8
Visible (ANSI)
100
AcDbVertex
100
AcDb2dVertex
 10
1.005881258831047
 20
2.841935934893475
 30
0.0
  0
VERTEX
  5
1C2
330
1AD
100
AcDbEntity
  8
Visible (ANSI)
100
AcDbVertex
100
AcDb2dVertex
 10
1.007410328768841
 20
2.841277661624562
 30
0.0
  0
VERTEX
  5
1C3
330
1AD
100
AcDbEntity
  8
Visible (ANSI)
100
AcDbVertex
100
AcDb2dVertex
 10
1.008942460515654
 20
2.840538424485912
 30
0.0
  0
VERTEX
  5
1C4
330
1AD
100
AcDbEntity
  8
Visible (ANSI)
100
AcDbVertex
100
AcDb2dVertex
 10
1.010474344192457
 20
2.839720019969657
 30
0.0
  0
VERTEX
  5
1C5
330
1AD
100
AcDbEntity
  8
Visible (ANSI)
100
AcDbVertex
100
AcDb2dVertex
 10
1.012002763723277
 20
2.838824484741384
 30
0.0
  0
VERTEX
  5
1C6
330
1AD
100
AcDbEntity
  8
Visible (ANSI)
100
AcDbVertex
100
AcDb2dVertex
 10
1.013524380543677
 20
2.837853950355756
 30
0.0
  0
VERTEX
  5
1C7
330
1AD
100
AcDbEntity
  8
Visible (ANSI)
100
AcDbVertex
100
AcDb2dVertex
 10
1.015036004953225
 20
2.836810800828843
 30
0.0
  0
SEQEND
  5
1B0
330
1AD
100
AcDbEntity
  8
Visible (ANSI)
  0
POLYLINE
  5
1C8
330
37
100
AcDbEntity
  8
Visible (ANSI)
100
AcDb2dPolyline
 66
     1
 10
0.0
 20
0.0
 30
0.0
 70
   128
  0
VERTEX
  5
1C9
330
1C8
100
AcDbEntity
  8
Visible (ANSI)
100
AcDbVertex
100
AcDb2dVertex
 10
0.9950586767033053
 20
2.846319535668086
 30
0.0
  0
VERTEX
  5
1CA
330
1C8
100
AcDbEntity
  8
Visible (ANSI)
100
AcDbVertex
100
AcDb2dVertex
 10
0.9961392511743788
 20
2.847313447096871
 30
0.0
  0
VERTEX
  5
1CC
330
1C8
100
AcDbEntity
  8
Visible (ANSI)
100
AcDbVertex
100
AcDb2dVertex
 10
0.9972879876973641
 20
2.84820542250312
 30
0.0
  0
VERTEX
  5
1CD
330
1C8
100
AcDbEntity
  8
Visible (ANSI)
100
AcDbVertex
100
AcDb2dVertex
 10
0.9985018701078425
 20
2.848993058685531
 30
0.0
  0
VERTEX
  5
1CE
330
1C8
100
AcDbEntity
  8
Visible (ANSI)
100
AcDbVertex
100
AcDb2dVertex
 10
0.9997777117334583
 20
2.849674263175653
 30
0.0
  0
VERTEX
  5
1CF
330
1C8
100
AcDbEntity
  8
Visible (ANSI)
100
AcDbVertex
100
AcDb2dVertex
 10
1.001112092896764
 20
2.850247225430166
 30
0.0
  0
VERTEX
  5
1D0
330
1C8
100
AcDbEntity
  8
Visible (ANSI)
100
AcDbVertex
100
AcDb2dVertex
 10
1.002501479949021
 20
2.850710475006321
 30
0.0
  0
VERTEX
  5
1D1
330
1C8
100
AcDbEntity
  8
Visible (ANSI)
100
AcDbVertex
100
AcDb2dVertex
 10
1.003942175397762
 20
2.851062859323027
 30
0.0
  0
VERTEX
  5
1D2
330
1C8
100
AcDbEntity
  8
Visible (ANSI)
100
AcDbVertex
100
AcDb2dVertex
 10
1.00543028677042
 20
2.851303520304727
 30
0.0
  0
VERTEX
  5
1D3
330
1C8
100
AcDbEntity
  8
Visible (ANSI)
100
AcDbVertex
100
AcDb2dVertex
 10
1.006961828850394
 20
2.851431951702491
 30
0.0
  0
VERTEX
  5
1D4
330
1C8
100
AcDbEntity
  8
Visible (ANSI)
100
AcDbVertex
100
AcDb2dVertex
 10
1.008532681393271
 20
2.851447959337132
 30
0.0
  0
VERTEX
  5
1D5
330
1C8
100
AcDbEntity
  8
Visible (ANSI)
100
AcDbVertex
100
AcDb2dVertex
 10
1.010138618343984
 20
2.851351690703987
 30
0.0
  0
VERTEX
  5
1D6
330
1C8
100
AcDbEntity
  8
Visible (ANSI)
100
AcDbVertex
100
AcDb2dVertex
 10
1.011775267214924
 20
2.851143585837063
 30
0.0
  0
VERTEX
  5
1D7
330
1C8
100
AcDbEntity
  8
Visible (ANSI)
100
AcDbVertex
100
AcDb2dVertex
 10
1.013438219120833
 20
2.850824436949054
 30
0.0
  0
VERTEX
  5
1D8
330
1C8
100
AcDbEntity
  8
Visible (ANSI)
100
AcDbVertex
100
AcDb2dVertex
 10
1.015122982413895
 20
2.850395361343345
 30
0.0
  0
VERTEX
  5
1D9
330
1C8
100
AcDbEntity
  8
Visible (ANSI)
100
AcDbVertex
100
AcDb2dVertex
 10
1.016824955009357
 20
2.849857763003652
 30
0.0
  0
VERTEX
  5
1DA
330
1C8
100
AcDbEntity
  8
Visible (ANSI)
100
AcDbVertex
100
AcDb2dVertex
 10
1.018539537327904
 20
2.84921338927671
 30
0.0
  0
VERTEX
  5
1DB
330
1C8
100
AcDbEntity
  8
Visible (ANSI)
100
AcDbVertex
100
AcDb2dVertex
 10
1.020262072244993
 20
2.848464291246822
 30
0.0
  0
VERTEX
  5
1DC
330
1C8
100
AcDbEntity
  8
Visible (ANSI)
100
AcDbVertex
100
AcDb2dVertex
 10
1.021987899137109
 20
2.847612826804448
 30
0.0
  0
VERTEX
  5
1DD
330
1C8
100
AcDbEntity
  8
Visible (ANSI)
100
AcDbVertex
100
AcDb2dVertex
 10
1.023712299460689
 20
2.846661628108966
 30
0.0
  0
VERTEX
  5
1DE
330
1C8
100
AcDbEntity
  8
Visible (ANSI)
100
AcDbVertex
100
AcDb2dVertex
 10
1.025430603534794
 20
2.845613641470893
 30
0.0
  0
VERTEX
  5
1DF
330
1C8
100
AcDbEntity
  8
Visible (ANSI)
100
AcDbVertex
100
AcDb2dVertex
 10
1.027138163858656
 20
2.844472093058319
 30
0.0
  0
VERTEX
  5
1E0
330
1C8
100
AcDbEntity
  8
Visible (ANSI)
100
AcDbVertex
100
AcDb2dVertex
 10
1.028830312600652
 20
2.843240452763226
 30
0.0
  0
VERTEX
  5
1E1
330
1C8
100
AcDbEntity
  8
Visible (ANSI)
100
AcDbVertex
100
AcDb2dVertex
 10
1.030502475464314
 20
2.841922479693252
 30
0.0
  0
VERTEX
  5
1E2
330
1C8
100
AcDbEntity
  8
Visible (ANSI)
100
AcDbVertex
100
AcDb2dVertex
 10
1.03215012238179
 20
2.840522176743652
 30
0.0
  0
SEQEND
  5
1CB
330
1C8
100
AcDbEntity
  8
Visible (ANSI)
  0
POLYLINE
  5
1E3
330
37
100
AcDbEntity
  8
Visible (ANSI)
100
AcDb2dPolyline
 66
     1
 10
0.0
 20
0.0
 30
0.0
 70
   128
  0
VERTEX
  5
1E4
330
1E3
100
AcDbEntity
  8
Visible (ANSI)
100
AcDbVertex
100
AcDb2dVertex
 10
1.007685573838716
 20
2.853609678128244
 30
0.0
  0
VERTEX
  5
1E5
330
1E3
100
AcDbEntity
  8
Visible (ANSI)
100
AcDbVertex
100
AcDb2dVertex
 10
1.008821923395994
 20
2.854650570913944
 30
0.0
  0
VERTEX
  5
1E7
330
1E3
100
AcDbEntity
  8
Visible (ANSI)
100
AcDbVertex
100
AcDb2dVertex
 10
1.010033248159696
 20
2.855578957169113
 30
0.0
  0
VERTEX
  5
1E8
330
1E3
100
AcDbEntity
  8
Visible (ANSI)
100
AcDbVertex
100
AcDb2dVertex
 10
1.011316042266812
 20
2.856392079634015
 30
0.0
  0
VERTEX
  5
1E9
330
1E3
100
AcDbEntity
  8
Visible (ANSI)
100
AcDbVertex
100
AcDb2dVertex
 10
1.012666570108375
 20
2.857087552487588
 30
0.0
  0
VERTEX
  5
1EA
330
1E3
100
AcDbEntity
  8
Visible (ANSI)
100
AcDbVertex
100
AcDb2dVertex
 10
1.014080863672805
 20
2.857663352328286
 30
0.0
  0
VERTEX
  5
1EB
330
1E3
100
AcDbEntity
  8
Visible (ANSI)
100
AcDbVertex
100
AcDb2dVertex
 10
1.015554800547223
 20
2.858117871576938
 30
0.0
  0
VERTEX
  5
1EC
330
1E3
100
AcDbEntity
  8
Visible (ANSI)
100
AcDbVertex
100
AcDb2dVertex
 10
1.017084022817578
 20
2.858449852471424
 30
0.0
  0
VERTEX
  5
1ED
330
1E3
100
AcDbEntity
  8
Visible (ANSI)
100
AcDbVertex
100
AcDb2dVertex
 10
1.01866400307089
 20
2.858658451392888
 30
0.0
  0
VERTEX
  5
1EE
330
1E3
100
AcDbEntity
  8
Visible (ANSI)
100
AcDbVertex
100
AcDb2dVertex
 10
1.020290061399085
 20
2.858743204082573
 30
0.0
  0
VERTEX
  5
1EF
330
1E3
100
AcDbEntity
  8
Visible (ANSI)
100
AcDbVertex
100
AcDb2dVertex
 10
1.021957366504757
 20
2.858704055271483
 30
0.0
  0
VERTEX
  5
1F0
330
1E3
100
AcDbEntity
  8
Visible (ANSI)
100
AcDbVertex
100
AcDb2dVertex
 10
1.023660952038703
 20
2.858541338218453
 30
0.0
  0
VERTEX
  5
1F1
330
1E3
100
AcDbEntity
  8
Visible (ANSI)
100
AcDbVertex
100
AcDb2dVertex
 10
1.025395742903906
 20
2.858255778709588
 30
0.0
  0
VERTEX
  5
1F2
330
1E3
100
AcDbEntity
  8
Visible (ANSI)
100
AcDbVertex
100
AcDb2dVertex
 10
1.027156541615306
 20
2.857848492725957
 30
0.0
  0
VERTEX
  5
1F3
330
1E3
100
AcDbEntity
  8
Visible (ANSI)
100
AcDbVertex
100
AcDb2dVertex
 10
1.028938120885704
 20
2.857321008353212
 30
0.0
  0
VERTEX
  5
1F4
330
1E3
100
AcDbEntity
  8
Visible (ANSI)
100
AcDbVertex
100
AcDb2dVertex
 10
1.030735136249104
 20
2.856675211286381
 30
0.0
  0
VERTEX
  5
1F5
330
1E3
100
AcDbEntity
  8
Visible (ANSI)
100
AcDbVertex
100
AcDb2dVertex
 10
1.032542210155066
 20
2.855913372813756
 30
0.0
  0
VERTEX
  5
1F6
330
1E3
100
AcDbEntity
  8
Visible (ANSI)
100
AcDbVertex
100
AcDb2dVertex
 10
1.034353933604168
 20
2.855038134509871
 30
0.0
  0
VERTEX
  5
1F7
330
1E3
100
AcDbEntity
  8
Visible (ANSI)
100
AcDbVertex
100
AcDb2dVertex
 10
1.036164881469227
 20
2.854052505465939
 30
0.0
  0
VERTEX
  5
1F8
330
1E3
100
AcDbEntity
  8
Visible (ANSI)
100
AcDbVertex
100
AcDb2dVertex
 10
1.037969632109452
 20
2.852959839776568
 30
0.0
  0
VERTEX
  5
1F9
330
1E3
100
AcDbEntity
  8
Visible (ANSI)
100
AcDbVertex
100
AcDb2dVertex
 10
1.039762767828608
 20
2.851763830118826
 30
0.0
  0
VERTEX
  5
1FA
330
1E3
100
AcDbEntity
  8
Visible (ANSI)
100
AcDbVertex
100
AcDb2dVertex
 10
1.04153895673183
 20
2.850468525197684
 30
0.0
  0
VERTEX
  5
1FB
330
1E3
100
AcDbEntity
  8
Visible (ANSI)
100
AcDbVertex
100
AcDb2dVertex
 10
1.043292871129795
 20
2.849078261682302
 30
0.0
  0
VERTEX
  5
1FC
330
1E3
100
AcDbEntity
  8
Visible (ANSI)
100
AcDbVertex
100
AcDb2dVertex
 10
1.045019270520004
 20
2.847597688196328
 30
0.0
  0
VERTEX
  5
1FD
330
1E3
100
AcDbEntity
  8
Visible (ANSI)
100
AcDbVertex
100
AcDb2dVertex
 10
1.046713005281706
 20
2.846031747916109
 30
0.0
  0
SEQEND
  5
1E6
330
1E3
100
AcDbEntity
  8
Visible (ANSI)
  0
POLYLINE
  5
1FE
330
37
100
AcDbEntity
  8
Visible (ANSI)
100
AcDb2dPolyline
 66
     1
 10
0.0
 20
0.0
 30
0.0
 70
   128
  0
VERTEX
  5
1FF
330
1FE
100
AcDbEntity
  8
Visible (ANSI)
100
AcDbVertex
100
AcDb2dVertex
 10
1.020312487567376
 20
2.860899830168517
 30
0.0
  0
VERTEX
  5
200
330
1FE
100
AcDbEntity
  8
Visible (ANSI)
100
AcDbVertex
100
AcDb2dVertex
 10
1.021437500012849
 20
2.861931203435854
 30
0.0
  0
VERTEX
  5
202
330
1FE
100
AcDbEntity
  8
Visible (ANSI)
100
AcDbVertex
100
AcDb2dVertex
 10
1.022636060663818
 20
2.862852251225228
 30
0.0
  0
VERTEX
  5
203
330
1FE
100
AcDbEntity
  8
Visible (ANSI)
100
AcDbVertex
100
AcDb2dVertex
 10
1.023904803532942
 20
2.863660308882253
 30
0.0
  0
VERTEX
  5
204
330
1FE
100
AcDbEntity
  8
Visible (ANSI)
100
AcDbVertex
100
AcDb2dVertex
 10
1.025240085969137
 20
2.864353041288397
 30
0.0
  0
VERTEX
  5
205
330
1FE
100
AcDbEntity
  8
Visible (ANSI)
100
AcDbVertex
100
AcDb2dVertex
 10
1.026638062341971
 20
2.864928469711915
 30
0.0
  0
VERTEX
  5
206
330
1FE
100
AcDbEntity
  8
Visible (ANSI)
100
AcDbVertex
100
AcDb2dVertex
 10
1.028094739358317
 20
2.86538501413785
 30
0.0
  0
VERTEX
  5
207
330
1FE
100
AcDbEntity
  8
Visible (ANSI)
100
AcDbVertex
100
AcDb2dVertex
 10
1.029605889054821
 20
2.865721439678809
 30
0.0
  0
VERTEX
  5
208
330
1FE
100
AcDbEntity
  8
Visible (ANSI)
100
AcDbVertex
100
AcDb2dVertex
 10
1.031167126246338
 20
2.865936895162994
 30
0.0
  0
VERTEX
  5
209
330
1FE
100
AcDbEntity
  8
Visible (ANSI)
100
AcDbVertex
100
AcDb2dVertex
 10
1.032773899705092
 20
2.866030899944966
 30
0.0
  0
VERTEX
  5
20A
330
1FE
100
AcDbEntity
  8
Visible (ANSI)
100
AcDbVertex
100
AcDb2dVertex
 10
1.034421560841114
 20
2.866003381160528
 30
0.0
  0
VERTEX
  5
20B
330
1FE
100
AcDbEntity
  8
Visible (ANSI)
100
AcDbVertex
100
AcDb2dVertex
 10
1.036105282047876
 20
2.8658546198183
 30
0.0
  0
VERTEX
  5
20C
330
1FE
100
AcDbEntity
  8
Visible (ANSI)
100
AcDbVertex
100
AcDb2dVertex
 10
1.037820141073077
 20
2.865585286191017
 30
0.0
  0
VERTEX
  5
20D
330
1FE
100
AcDbEntity
  8
Visible (ANSI)
100
AcDbVertex
100
AcDb2dVertex
 10
1.03956110338428
 20
2.865196415087993
 30
0.0
  0
VERTEX
  5
20E
330
1FE
100
AcDbEntity
  8
Visible (ANSI)
100
AcDbVertex
100
AcDb2dVertex
 10
1.041323097817243
 20
2.864689450118421
 30
0.0
  0
VERTEX
  5
20F
330
1FE
100
AcDbEntity
  8
Visible (ANSI)
100
AcDbVertex
100
AcDb2dVertex
 10
1.043100940321858
 20
2.864066172757155
 30
0.0
  0
VERTEX
  5
210
330
1FE
100
AcDbEntity
  8
Visible (ANSI)
100
AcDbVertex
100
AcDb2dVertex
 10
1.04488941565637
 20
2.863328737895609
 30
0.0
  0
VERTEX
  5
211
330
1FE
100
AcDbEntity
  8
Visible (ANSI)
100
AcDbVertex
100
AcDb2dVertex
 10
1.046683255876356
 20
2.862479653057338
 30
0.0
  0
VERTEX
  5
212
330
1FE
100
AcDbEntity
  8
Visible (ANSI)
100
AcDbVertex
100
AcDb2dVertex
 10
1.048477224383547
 20
2.861521796176773
 30
0.0
  0
VERTEX
  5
213
330
1FE
100
AcDbEntity
  8
Visible (ANSI)
100
AcDbVertex
100
AcDb2dVertex
 10
1.050266040985673
 20
2.860458366394361
 30
0.0
  0
VERTEX
  5
214
330
1FE
100
AcDbEntity
  8
Visible (ANSI)
100
AcDbVertex
100
AcDb2dVertex
 10
1.052044433500697
 20
2.859292885312493
 30
0.0
  0
VERTEX
  5
215
330
1FE
100
AcDbEntity
  8
Visible (ANSI)
100
AcDbVertex
100
AcDb2dVertex
 10
1.05380721846683
 20
2.858029230155422
 30
0.0
  0
VERTEX
  5
216
330
1FE
100
AcDbEntity
  8
Visible (ANSI)
100
AcDbVertex
100
AcDb2dVertex
 10
1.055549208287494
 20
2.856671551529119
 30
0.0
  0
VERTEX
  5
217
330
1FE
100
AcDbEntity
  8
Visible (ANSI)
100
AcDbVertex
100
AcDb2dVertex
 10
1.057265298642137
 20
2.855224308283294
 30
0.0
  0
VERTEX
  5
218
330
1FE
100
AcDbEntity
  8
Visible (ANSI)
100
AcDbVertex
100
AcDb2dVertex
 10
1.058950448591566
 20
2.853692227142869
 30
0.0
  0
SEQEND
  5
201
330
1FE
100
AcDbEntity
  8
Visible (ANSI)
  0
POLYLINE
  5
219
330
37
100
AcDbEntity
  8
Visible (ANSI)
100
AcDb2dPolyline
 66
     1
 10
0.0
 20
0.0
 30
0.0
 70
   128
  0
VERTEX
  5
21A
330
219
100
AcDbEntity
  8
Visible (ANSI)
100
AcDbVertex
100
AcDb2dVertex
 10
1.032939384702787
 20
2.868189972628675
 30
0.0
  0
VERTEX
  5
21B
330
219
100
AcDbEntity
  8
Visible (ANSI)
100
AcDbVertex
100
AcDb2dVertex
 10
1.033197843969163
 20
2.868442937849648
 30
0.0
  0
VERTEX
  5
21D
330
219
100
AcDbEntity
  8
Visible (ANSI)
100
AcDbVertex
100
AcDb2dVertex
 10
1.033460516539256
 20
2.868689883567856
 30
0.0
  0
VERTEX
  5
21E
330
219
100
AcDbEntity
  8
Visible (ANSI)
100
AcDbVertex
100
AcDb2dVertex
 10
1.033727388530951
 20
2.868930794166706
 30
0.0
  0
VERTEX
  5
21F
330
219
100
AcDbEntity
  8
Visible (ANSI)
100
AcDbVertex
100
AcDb2dVertex
 10
1.033998389565332
 20
2.869165606304354
 30
0.0
  0
VERTEX
  5
220
330
219
100
AcDbEntity
  8
Visible (ANSI)
100
AcDbVertex
100
AcDb2dVertex
 10
1.034273507698608
 20
2.869394302392652
 30
0.0
  0
VERTEX
  5
221
330
219
100
AcDbEntity
  8
Visible (ANSI)
100
AcDbVertex
100
AcDb2dVertex
 10
1.034552667659707
 20
2.869616827269365
 30
0.0
  0
VERTEX
  5
222
330
219
100
AcDbEntity
  8
Visible (ANSI)
100
AcDbVertex
100
AcDb2dVertex
 10
1.034835855381949
 20
2.869833164864911
 30
0.0
  0
VERTEX
  5
223
330
219
100
AcDbEntity
  8
Visible (ANSI)
100
AcDbVertex
100
AcDb2dVertex
 10
1.035123014310398
 20
2.870043268078603
 30
0.0
  0
VERTEX
  5
224
330
219
100
AcDbEntity
  8
Visible (ANSI)
100
AcDbVertex
100
AcDb2dVertex
 10
1.035414080598633
 20
2.870247092100511
 30
0.0
  0
VERTEX
  5
225
330
219
100
AcDbEntity
  8
Visible (ANSI)
100
AcDbVertex
100
AcDb2dVertex
 10
1.035709040456414
 20
2.870444628268471
 30
0.0
  0
VERTEX
  5
226
330
219
100
AcDbEntity
  8
Visible (ANSI)
100
AcDbVertex
100
AcDb2dVertex
 10
1.036007813444074
 20
2.87063582219244
 30
0.0
  0
VERTEX
  5
227
330
219
100
AcDbEntity
  8
Visible (ANSI)
100
AcDbVertex
100
AcDb2dVertex
 10
1.036310387709697
 20
2.870820663238695
 30
0.0
  0
VERTEX
  5
228
330
219
100
AcDbEntity
  8
Visible (ANSI)
100
AcDbVertex
100
AcDb2dVertex
 10
1.03661667967522
 20
2.870999102772256
 30
0.0
  0
VERTEX
  5
229
330
219
100
AcDbEntity
  8
Visible (ANSI)
100
AcDbVertex
100
AcDb2dVertex
 10
1.036926675181278
 20
2.871171131224981
 30
0.0
  0
VERTEX
  5
22A
330
219
100
AcDbEntity
  8
Visible (ANSI)
100
AcDbVertex
100
AcDb2dVertex
 10
1.037240291388061
 20
2.871336701773844
 30
0.0
  0
VERTEX
  5
22B
330
219
100
AcDbEntity
  8
Visible (ANSI)
100
AcDbVertex
100
AcDb2dVertex
 10
1.037557510259554
 20
2.871495808793813
 30
0.0
  0
VERTEX
  5
22C
330
219
100
AcDbEntity
  8
Visible (ANSI)
100
AcDbVertex
100
AcDb2dVertex
 10
1.037878249694202
 20
2.871648407273813
 30
0.0
  0
VERTEX
  5
22D
330
219
100
AcDbEntity
  8
Visible (ANSI)
100
AcDbVertex
100
AcDb2dVertex
 10
1.038202491286861
 20
2.871794490682837
 30
0.0
  0
VERTEX
  5
22E
330
219
100
AcDbEntity
  8
Visible (ANSI)
100
AcDbVertex
100
AcDb2dVertex
 10
1.038530149797585
 20
2.871934019764875
 30
0.0
  0
VERTEX
  5
22F
330
219
100
AcDbEntity
  8
Visible (ANSI)
100
AcDbVertex
100
AcDb2dVertex
 10
1.038861205621158
 20
2.872066991772428
 30
0.0
  0
VERTEX
  5
230
330
219
100
AcDbEntity
  8
Visible (ANSI)
100
AcDbVertex
100
AcDb2dVertex
 10
1.039195572779377
 20
2.872193365637532
 30
0.0
  0
VERTEX
  5
231
330
219
100
AcDbEntity
  8
Visible (ANSI)
100
AcDbVertex
100
AcDb2dVertex
 10
1.039533230097832
 20
2.872313141490219
 30
0.0
  0
VERTEX
  5
232
330
219
100
AcDbEntity
  8
Visible (ANSI)
100
AcDbVertex
100
AcDb2dVertex
 10
1.039874091136503
 20
2.872426283857988
 30
0.0
  0
VERTEX
  5
233
330
219
100
AcDbEntity
  8
Visible (ANSI)
100
AcDbVertex
100
AcDb2dVertex
 10
1.040218134351852
 20
2.872532791964895
 30
0.0
  0
SEQEND
  5
21C
330
219
100
AcDbEntity
  8
Visible (ANSI)
  0
POLYLINE
  5
234
330
37
100
AcDbEntity
  8
Visible (ANSI)
100
AcDb2dPolyline
 66
     1
 10
0.0
 20
0.0
 30
0.0
 70
   128
  0
VERTEX
  5
235
330
234
100
AcDbEntity
  8
Visible (ANSI)
100
AcDbVertex
100
AcDb2dVertex
 10
1.11625230797484
 20
2.916352753498711
 30
0.0
  0
VERTEX
  5
236
330
234
100
AcDbEntity
  8
Visible (ANSI)
100
AcDbVertex
100
AcDb2dVertex
 10
1.116816641428842
 20
2.916501794001924
 30
0.0
  0
VERTEX
  5
238
330
234
100
AcDbEntity
  8
Visible (ANSI)
100
AcDbVertex
100
AcDb2dVertex
 10
1.117388687312528
 20
2.916633488033924
 30
0.0
  0
VERTEX
  5
239
330
234
100
AcDbEntity
  8
Visible (ANSI)
100
AcDbVertex
100
AcDb2dVertex
 10
1.117968209906408
 20
2.916747781907398
 30
0.0
  0
VERTEX
  5
23A
330
234
100
AcDbEntity
  8
Visible (ANSI)
100
AcDbVertex
100
AcDb2dVertex
 10
1.118554965645007
 20
2.916844636322689
 30
0.0
  0
VERTEX
  5
23B
330
234
100
AcDbEntity
  8
Visible (ANSI)
100
AcDbVertex
100
AcDb2dVertex
 10
1.119148706624381
 20
2.916924021518717
 30
0.0
  0
VERTEX
  5
23C
330
234
100
AcDbEntity
  8
Visible (ANSI)
100
AcDbVertex
100
AcDb2dVertex
 10
1.119749185678846
 20
2.916985909546351
 30
0.0
  0
VERTEX
  5
23D
330
234
100
AcDbEntity
  8
Visible (ANSI)
100
AcDbVertex
100
AcDb2dVertex
 10
1.120356150104178
 20
2.917030285778544
 30
0.0
  0
VERTEX
  5
23E
330
234
100
AcDbEntity
  8
Visible (ANSI)
100
AcDbVertex
100
AcDb2dVertex
 10
1.12096934673434
 20
2.917057141183709
 30
0.0
  0
VERTEX
  5
23F
330
234
100
AcDbEntity
  8
Visible (ANSI)
100
AcDbVertex
100
AcDb2dVertex
 10
1.121588514649996
 20
2.917066474616481
 30
0.0
  0
VERTEX
  5
240
330
234
100
AcDbEntity
  8
Visible (ANSI)
100
AcDbVertex
100
AcDb2dVertex
 10
1.122213395884828
 20
2.917058292179307
 30
0.0
  0
VERTEX
  5
241
330
234
100
AcDbEntity
  8
Visible (ANSI)
100
AcDbVertex
100
AcDb2dVertex
 10
1.122843727395799
 20
2.917032607701253
 30
0.0
  0
VERTEX
  5
242
330
234
100
AcDbEntity
  8
Visible (ANSI)
100
AcDbVertex
100
AcDb2dVertex
 10
1.123479244477985
 20
2.916989444390357
 30
0.0
  0
VERTEX
  5
243
330
234
100
AcDbEntity
  8
Visible (ANSI)
100
AcDbVertex
100
AcDb2dVertex
 10
1.124119678087998
 20
2.916928834993227
 30
0.0
  0
VERTEX
  5
244
330
234
100
AcDbEntity
  8
Visible (ANSI)
100
AcDbVertex
100
AcDb2dVertex
 10
1.124764758720635
 20
2.916850817851934
 30
0.0
  0
VERTEX
  5
245
330
234
100
AcDbEntity
  8
Visible (ANSI)
100
AcDbVertex
100
AcDb2dVertex
 10
1.125414211793972
 20
2.916755439035168
 30
0.0
  0
VERTEX
  5
246
330
234
100
AcDbEntity
  8
Visible (ANSI)
100
AcDbVertex
100
AcDb2dVertex
 10
1.126067751024183
 20
2.91664274030776
 30
0.0
  0
VERTEX
  5
247
330
234
100
AcDbEntity
  8
Visible (ANSI)
100
AcDbVertex
100
AcDb2dVertex
 10
1.126725131692068
 20
2.916512805656572
 30
0.0
  0
VERTEX
  5
248
330
234
100
AcDbEntity
  8
Visible (ANSI)
100
AcDbVertex
100
AcDb2dVertex
 10
1.127386059067778
 20
2.916365693125849
 30
0.0
  0
VERTEX
  5
249
330
234
100
AcDbEntity
  8
Visible (ANSI)
100
AcDbVertex
100
AcDb2dVertex
 10
1.128050254829334
 20
2.916201483342828
 30
0.0
  0
VERTEX
  5
24A
330
234
100
AcDbEntity
  8
Visible (ANSI)
100
AcDbVertex
100
AcDb2dVertex
 10
1.12871743774727
 20
2.916020259892081
 30
0.0
  0
VERTEX
  5
24B
330
234
100
AcDbEntity
  8
Visible (ANSI)
100
AcDbVertex
100
AcDb2dVertex
 10
1.129387326637653
 20
2.915822116563322
 30
0.0
  0
VERTEX
  5
24C
330
234
100
AcDbEntity
  8
Visible (ANSI)
100
AcDbVertex
100
AcDb2dVertex
 10
1.130059637178155
 20
2.915607152901331
 30
0.0
  0
VERTEX
  5
24D
330
234
100
AcDbEntity
  8
Visible (ANSI)
100
AcDbVertex
100
AcDb2dVertex
 10
1.130734084353722
 20
2.91537547684408
 30
0.0
  0
VERTEX
  5
24E
330
234
100
AcDbEntity
  8
Visible (ANSI)
100
AcDbVertex
100
AcDb2dVertex
 10
1.131410385871413
 20
2.915127206375086
 30
0.0
  0
SEQEND
  5
237
330
234
100
AcDbEntity
  8
Visible (ANSI)
  0
POLYLINE
  5
24F
330
37
100
AcDbEntity
  8
Visible (ANSI)
100
AcDb2dPolyline
 66
     1
 10
0.0
 20
0.0
 30
0.0
 70
   128
  0
VERTEX
  5
250
330
24F
100
AcDbEntity
  8
Visible (ANSI)
100
AcDbVertex
100
AcDb2dVertex
 10
1.121327731023659
 20
2.91922100817024
 30
0.0
  0
VERTEX
  5
251
330
24F
100
AcDbEntity
  8
Visible (ANSI)
100
AcDbVertex
100
AcDb2dVertex
 10
1.122305873080564
 20
2.920127584935272
 30
0.0
  0
VERTEX
  5
253
330
24F
100
AcDbEntity
  8
Visible (ANSI)
100
AcDbVertex
100
AcDb2dVertex
 10
1.123340421062887
 20
2.920950332944214
 30
0.0
  0
VERTEX
  5
254
330
24F
100
AcDbEntity
  8
Visible (ANSI)
100
AcDbVertex
100
AcDb2dVertex
 10
1.124429119490993
 20
2.921687414818707
 30
0.0
  0
VERTEX
  5
255
330
24F
100
AcDbEntity
  8
Visible (ANSI)
100
AcDbVertex
100
AcDb2dVertex
 10
1.125569634269679
 20
2.922337224918174
 30
0.0
  0
VERTEX
  5
256
330
24F
100
AcDbEntity
  8
Visible (ANSI)
100
AcDbVertex
100
AcDb2dVertex
 10
1.126759445857122
 20
2.92289832497113
 30
0.0
  0
VERTEX
  5
257
330
24F
100
AcDbEntity
  8
Visible (ANSI)
100
AcDbVertex
100
AcDb2dVertex
 10
1.127995980348975
 20
2.92336953009507
 30
0.0
  0
VERTEX
  5
258
330
24F
100
AcDbEntity
  8
Visible (ANSI)
100
AcDbVertex
100
AcDb2dVertex
 10
1.129276499417046
 20
2.923749843228412
 30
0.0
  0
VERTEX
  5
259
330
24F
100
AcDbEntity
  8
Visible (ANSI)
100
AcDbVertex
100
AcDb2dVertex
 10
1.130598163102814
 20
2.924038482166857
 30
0.0
  0
VERTEX
  5
25A
330
24F
100
AcDbEntity
  8
Visible (ANSI)
100
AcDbVertex
100
AcDb2dVertex
 10
1.131958084581198
 20
2.924234907078552
 30
0.0
  0
VERTEX
  5
25B
330
24F
100
AcDbEntity
  8
Visible (ANSI)
100
AcDbVertex
100
AcDb2dVertex
 10
1.13335321686816
 20
2.924338767192534
 30
0.0
  0
VERTEX
  5
25C
330
24F
100
AcDbEntity
  8
Visible (ANSI)
100
AcDbVertex
100
AcDb2dVertex
 10
1.134780491381654
 20
2.924349971524985
 30
0.0
  0
VERTEX
  5
25D
330
24F
100
AcDbEntity
  8
Visible (ANSI)
100
AcDbVertex
100
AcDb2dVertex
 10
1.136236722094153
 20
2.92426861782368
 30
0.0
  0
VERTEX
  5
25E
330
24F
100
AcDbEntity
  8
Visible (ANSI)
100
AcDbVertex
100
AcDb2dVertex
 10
1.137718646820832
 20
2.924095027382597
 30
0.0
  0
VERTEX
  5
25F
330
24F
100
AcDbEntity
  8
Visible (ANSI)
100
AcDbVertex
100
AcDb2dVertex
 10
1.139222992782351
 20
2.923829765417243
 30
0.0
  0
VERTEX
  5
260
330
24F
100
AcDbEntity
  8
Visible (ANSI)
100
AcDbVertex
100
AcDb2dVertex
 10
1.140746370973064
 20
2.923473586368302
 30
0.0
  0
VERTEX
  5
261
330
24F
100
AcDbEntity
  8
Visible (ANSI)
100
AcDbVertex
100
AcDb2dVertex
 10
1.142285407846772
 20
2.923027491118057
 30
0.0
  0
VERTEX
  5
262
330
24F
100
AcDbEntity
  8
Visible (ANSI)
100
AcDbVertex
100
AcDb2dVertex
 10
1.143836647252856
 20
2.922492677410694
 30
0.0
  0
VERTEX
  5
263
330
24F
100
AcDbEntity
  8
Visible (ANSI)
100
AcDbVertex
100
AcDb2dVertex
 10
1.145396600586772
 20
2.921870542586902
 30
0.0
  0
VERTEX
  5
264
330
24F
100
AcDbEntity
  8
Visible (ANSI)
100
AcDbVertex
100
AcDb2dVertex
 10
1.146961809305498
 20
2.921162730124545
 30
0.0
  0
VERTEX
  5
265
330
24F
100
AcDbEntity
  8
Visible (ANSI)
100
AcDbVertex
100
AcDb2dVertex
 10
1.148528738189987
 20
2.92037104531266
 30
0.0
  0
VERTEX
  5
266
330
24F
100
AcDbEntity
  8
Visible (ANSI)
100
AcDbVertex
100
AcDb2dVertex
 10
1.150093912244235
 20
2.919497535356687
 30
0.0
  0
VERTEX
  5
267
330
24F
100
AcDbEntity
  8
Visible (ANSI)
100
AcDbVertex
100
AcDb2dVertex
 10
1.151653810718753
 20
2.918544411966993
 30
0.0
  0
VERTEX
  5
268
330
24F
100
AcDbEntity
  8
Visible (ANSI)
100
AcDbVertex
100
AcDb2dVertex
 10
1.153204924666378
 20
2.917514077315573
 30
0.0
  0
VERTEX
  5
269
330
24F
100
AcDbEntity
  8
Visible (ANSI)
100
AcDbVertex
100
AcDb2dVertex
 10
1.154743817890143
 20
2.916409146542521
 30
0.0
  0
SEQEND
  5
252
330
24F
100
AcDbEntity
  8
Visible (ANSI)
  0
POLYLINE
  5
26A
330
37
100
AcDbEntity
  8
Visible (ANSI)
100
AcDb2dPolyline
 66
     1
 10
0.0
 20
0.0
 30
0.0
 70
   128
  0
VERTEX
  5
26B
330
26A
100
AcDbEntity
  8
Visible (ANSI)
100
AcDbVertex
100
AcDb2dVertex
 10
1.133954644752318
 20
2.926511160210514
 30
0.0
  0
VERTEX
  5
26C
330
26A
100
AcDbEntity
  8
Visible (ANSI)
100
AcDbVertex
100
AcDb2dVertex
 10
1.135058675590973
 20
2.927524876623681
 30
0.0
  0
VERTEX
  5
26E
330
26A
100
AcDbEntity
  8
Visible (ANSI)
100
AcDbVertex
100
AcDb2dVertex
 10
1.13623368829176
 20
2.928432268668128
 30
0.0
  0
VERTEX
  5
26F
330
26A
100
AcDbEntity
  8
Visible (ANSI)
100
AcDbVertex
100
AcDb2dVertex
 10
1.137476486702891
 20
2.929230796686769
 30
0.0
  0
VERTEX
  5
270
330
26A
100
AcDbEntity
  8
Visible (ANSI)
100
AcDbVertex
100
AcDb2dVertex
 10
1.138783629093989
 20
2.929918235146672
 30
0.0
  0
VERTEX
  5
271
330
26A
100
AcDbEntity
  8
Visible (ANSI)
100
AcDbVertex
100
AcDb2dVertex
 10
1.140151520002925
 20
2.930492706192584
 30
0.0
  0
VERTEX
  5
272
330
26A
100
AcDbEntity
  8
Visible (ANSI)
100
AcDbVertex
100
AcDb2dVertex
 10
1.141576353450586
 20
2.930952662743308
 30
0.0
  0
VERTEX
  5
273
330
26A
100
AcDbEntity
  8
Visible (ANSI)
100
AcDbVertex
100
AcDb2dVertex
 10
1.143054147706122
 20
2.931296906912954
 30
0.0
  0
VERTEX
  5
274
330
26A
100
AcDbEntity
  8
Visible (ANSI)
100
AcDbVertex
100
AcDb2dVertex
 10
1.144580791682137
 20
2.931524596602853
 30
0.0
  0
VERTEX
  5
275
330
26A
100
AcDbEntity
  8
Visible (ANSI)
100
AcDbVertex
100
AcDb2dVertex
 10
1.146151990456911
 20
2.931635227532361
 30
0.0
  0
VERTEX
  5
276
330
26A
100
AcDbEntity
  8
Visible (ANSI)
100
AcDbVertex
100
AcDb2dVertex
 10
1.14776334733774
 20
2.931628669695725
 30
0.0
  0
VERTEX
  5
277
330
26A
100
AcDbEntity
  8
Visible (ANSI)
100
AcDbVertex
100
AcDb2dVertex
 10
1.149410318429208
 20
2.931505131221721
 30
0.0
  0
VERTEX
  5
278
330
26A
100
AcDbEntity
  8
Visible (ANSI)
100
AcDbVertex
100
AcDb2dVertex
 10
1.151088258935699
 20
2.931265171467006
 30
0.0
  0
VERTEX
  5
279
330
26A
100
AcDbEntity
  8
Visible (ANSI)
100
AcDbVertex
100
AcDb2dVertex
 10
1.152792445143776
 20
2.930909718343621
 30
0.0
  0
VERTEX
  5
27A
330
26A
100
AcDbEntity
  8
Visible (ANSI)
100
AcDbVertex
100
AcDb2dVertex
 10
1.154518050634003
 20
2.93044002810408
 30
0.0
  0
VERTEX
  5
27B
330
26A
100
AcDbEntity
  8
Visible (ANSI)
100
AcDbVertex
100
AcDb2dVertex
 10
1.156260210946519
 20
2.929857722835655
 30
0.0
  0
VERTEX
  5
27C
330
26A
100
AcDbEntity
  8
Visible (ANSI)
100
AcDbVertex
100
AcDb2dVertex
 10
1.15801398102082
 20
2.929164743296075
 30
0.0
  0
VERTEX
  5
27D
330
26A
100
AcDbEntity
  8
Visible (ANSI)
100
AcDbVertex
100
AcDb2dVertex
 10
1.159774411536816
 20
2.928363384783629
 30
0.0
  0
VERTEX
  5
27E
330
26A
100
AcDbEntity
  8
Visible (ANSI)
100
AcDbVertex
100
AcDb2dVertex
 10
1.161536513451167
 20
2.927456258546437
 30
0.0
  0
VERTEX
  5
27F
330
26A
100
AcDbEntity
  8
Visible (ANSI)
100
AcDbVertex
100
AcDb2dVertex
 10
1.163295286949182
 20
2.926446289206632
 30
0.0
  0
VERTEX
  5
280
330
26A
100
AcDbEntity
  8
Visible (ANSI)
100
AcDbVertex
100
AcDb2dVertex
 10
1.165045770446669
 20
2.92533673279669
 30
0.0
  0
VERTEX
  5
281
330
26A
100
AcDbEntity
  8
Visible (ANSI)
100
AcDbVertex
100
AcDb2dVertex
 10
1.166782992644245
 20
2.924131122673209
 30
0.0
  0
VERTEX
  5
282
330
26A
100
AcDbEntity
  8
Visible (ANSI)
100
AcDbVertex
100
AcDb2dVertex
 10
1.168502055906196
 20
2.922833300791415
 30
0.0
  0
VERTEX
  5
283
330
26A
100
AcDbEntity
  8
Visible (ANSI)
100
AcDbVertex
100
AcDb2dVertex
 10
1.170198094474497
 20
2.921447380419407
 30
0.0
  0
VERTEX
  5
284
330
26A
100
AcDbEntity
  8
Visible (ANSI)
100
AcDbVertex
100
AcDb2dVertex
 10
1.171866308330803
 20
2.919977730879478
 30
0.0
  0
SEQEND
  5
26D
330
26A
100
AcDbEntity
  8
Visible (ANSI)
  0
POLYLINE
  5
285
330
37
100
AcDbEntity
  8
Visible (ANSI)
100
AcDb2dPolyline
 66
     1
 10
0.0
 20
0.0
 30
0.0
 70
   128
  0
VERTEX
  5
286
330
285
100
AcDbEntity
  8
Visible (ANSI)
100
AcDbVertex
100
AcDb2dVertex
 10
1.146581550184353
 20
2.933801307460729
 30
0.0
  0
VERTEX
  5
287
330
285
100
AcDbEntity
  8
Visible (ANSI)
100
AcDbVertex
100
AcDb2dVertex
 10
1.147745543546067
 20
2.934865340036411
 30
0.0
  0
VERTEX
  5
289
330
285
100
AcDbEntity
  8
Visible (ANSI)
100
AcDbVertex
100
AcDb2dVertex
 10
1.148987995397571
 20
2.935811439375514
 30
0.0
  0
VERTEX
  5
28A
330
285
100
AcDbEntity
  8
Visible (ANSI)
100
AcDbVertex
100
AcDb2dVertex
 10
1.150305136936883
 20
2.936636667163821
 30
0.0
  0
VERTEX
  5
28B
330
285
100
AcDbEntity
  8
Visible (ANSI)
100
AcDbVertex
100
AcDb2dVertex
 10
1.151692944150956
 20
2.937338476887152
 30
0.0
  0
VERTEX
  5
28C
330
285
100
AcDbEntity
  8
Visible (ANSI)
100
AcDbVertex
100
AcDb2dVertex
 10
1.153147174230822
 20
2.93791476110268
 30
0.0
  0
VERTEX
  5
28D
330
285
100
AcDbEntity
  8
Visible (ANSI)
100
AcDbVertex
100
AcDb2dVertex
 10
1.154663346619669
 20
2.938363804156575
 30
0.0
  0
VERTEX
  5
28E
330
285
100
AcDbEntity
  8
Visible (ANSI)
100
AcDbVertex
100
AcDb2dVertex
 10
1.156236772690188
 20
2.938684333105058
 30
0.0
  0
VERTEX
  5
28F
330
285
100
AcDbEntity
  8
Visible (ANSI)
100
AcDbVertex
100
AcDb2dVertex
 10
1.1578625707174
 20
2.93887549140422
 30
0.0
  0
VERTEX
  5
290
330
285
100
AcDbEntity
  8
Visible (ANSI)
100
AcDbVertex
100
AcDb2dVertex
 10
1.159535704509371
 20
2.93893687816135
 30
0.0
  0
VERTEX
  5
291
330
285
100
AcDbEntity
  8
Visible (ANSI)
100
AcDbVertex
100
AcDb2dVertex
 10
1.161250957532939
 20
2.938868504049303
 30
0.0
  0
VERTEX
  5
292
330
285
100
AcDbEntity
  8
Visible (ANSI)
100
AcDbVertex
100
AcDb2dVertex
 10
1.163002976990271
 20
2.938670823737189
 30
0.0
  0
VERTEX
  5
293
330
285
100
AcDbEntity
  8
Visible (ANSI)
100
AcDbVertex
100
AcDb2dVertex
 10
1.164786284453228
 20
2.93834471911876
 30
0.0
  0
VERTEX
  5
294
330
285
100
AcDbEntity
  8
Visible (ANSI)
100
AcDbVertex
100
AcDb2dVertex
 10
1.16659531560309
 20
2.937891514369939
 30
0.0
  0
VERTEX
  5
295
330
285
100
AcDbEntity
  8
Visible (ANSI)
100
AcDbVertex
100
AcDb2dVertex
 10
1.168424398924024
 20
2.937312946438619
 30
0.0
  0
VERTEX
  5
296
330
285
100
AcDbEntity
  8
Visible (ANSI)
100
AcDbVertex
100
AcDb2dVertex
 10
1.170267801996035
 20
2.936611175999471
 30
0.0
  0
VERTEX
  5
297
330
285
100
AcDbEntity
  8
Visible (ANSI)
100
AcDbVertex
100
AcDb2dVertex
 10
1.172119736776173
 20
2.93578877100155
 30
0.0
  0
VERTEX
  5
298
330
285
100
AcDbEntity
  8
Visible (ANSI)
100
AcDbVertex
100
AcDb2dVertex
 10
1.173974412952057
 20
2.934848718130068
 30
0.0
  0
VERTEX
  5
299
330
285
100
AcDbEntity
  8
Visible (ANSI)
100
AcDbVertex
100
AcDb2dVertex
 10
1.175826005398916
 20
2.933794384222358
 30
0.0
  0
VERTEX
  5
29A
330
285
100
AcDbEntity
  8
Visible (ANSI)
100
AcDbVertex
100
AcDb2dVertex
 10
1.177668706033847
 20
2.932629519003164
 30
0.0
  0
VERTEX
  5
29B
330
285
100
AcDbEntity
  8
Visible (ANSI)
100
AcDbVertex
100
AcDb2dVertex
 10
1.179496730319844
 20
2.931358239951313
 30
0.0
  0
VERTEX
  5
29C
330
285
100
AcDbEntity
  8
Visible (ANSI)
100
AcDbVertex
100
AcDb2dVertex
 10
1.181304366212574
 20
2.92998503799235
 30
0.0
  0
VERTEX
  5
29D
330
285
100
AcDbEntity
  8
Visible (ANSI)
100
AcDbVertex
100
AcDb2dVertex
 10
1.183085947288475
 20
2.928514728020474
 30
0.0
  0
VERTEX
  5
29E
330
285
100
AcDbEntity
  8
Visible (ANSI)
100
AcDbVertex
100
AcDb2dVertex
 10
1.184835899276136
 20
2.926952451922234
 30
0.0
  0
VERTEX
  5
29F
330
285
100
AcDbEntity
  8
Visible (ANSI)
100
AcDbVertex
100
AcDb2dVertex
 10
1.186548747972411
 20
2.925303659444054
 30
0.0
  0
SEQEND
  5
288
330
285
100
AcDbEntity
  8
Visible (ANSI)
  0
POLYLINE
  5
2A0
330
37
100
AcDbEntity
  8
Visible (ANSI)
100
AcDb2dPolyline
 66
     1
 10
0.0
 20
0.0
 30
0.0
 70
   128
  0
VERTEX
  5
2A1
330
2A0
100
AcDbEntity
  8
Visible (ANSI)
100
AcDbVertex
100
AcDb2dVertex
 10
1.159208455616389
 20
2.941091454710944
 30
0.0
  0
VERTEX
  5
2A2
330
2A0
100
AcDbEntity
  8
Visible (ANSI)
100
AcDbVertex
100
AcDb2dVertex
 10
1.160369951868268
 20
2.942153403309065
 30
0.0
  0
VERTEX
  5
2A4
330
2A0
100
AcDbEntity
  8
Visible (ANSI)
100
AcDbVertex
100
AcDb2dVertex
 10
1.161609592037071
 20
2.94309791162985
 30
0.0
  0
VERTEX
  5
2A5
330
2A0
100
AcDbEntity
  8
Visible (ANSI)
100
AcDbVertex
100
AcDb2dVertex
 10
1.162923620158763
 20
2.943922054796525
 30
0.0
  0
VERTEX
  5
2A6
330
2A0
100
AcDbEntity
  8
Visible (ANSI)
100
AcDbVertex
100
AcDb2dVertex
 10
1.164308060921317
 20
2.944623318732976
 30
0.0
  0
VERTEX
  5
2A7
330
2A0
100
AcDbEntity
  8
Visible (ANSI)
100
AcDbVertex
100
AcDb2dVertex
 10
1.165758680221358
 20
2.945199583334881
 30
0.0
  0
VERTEX
  5
2A8
330
2A0
100
AcDbEntity
  8
Visible (ANSI)
100
AcDbVertex
100
AcDb2dVertex
 10
1.167271028871593
 20
2.945649153994411
 30
0.0
  0
VERTEX
  5
2A9
330
2A0
100
AcDbEntity
  8
Visible (ANSI)
100
AcDbVertex
100
AcDb2dVertex
 10
1.168840448620269
 20
2.945970746959787
 30
0.0
  0
VERTEX
  5
2AA
330
2A0
100
AcDbEntity
  8
Visible (ANSI)
100
AcDbVertex
100
AcDb2dVertex
 10
1.170462110412769
 20
2.946163527680622
 30
0.0
  0
VERTEX
  5
2AB
330
2A0
100
AcDbEntity
  8
Visible (ANSI)
100
AcDbVertex
100
AcDb2dVertex
 10
1.17213098768638
 20
2.946227071411784
 30
0.0
  0
VERTEX
  5
2AC
330
2A0
100
AcDbEntity
  8
Visible (ANSI)
100
AcDbVertex
100
AcDb2dVertex
 10
1.173841899903542
 20
2.946161382967795
 30
0.0
  0
VERTEX
  5
2AD
330
2A0
100
AcDbEntity
  8
Visible (ANSI)
100
AcDbVertex
100
AcDb2dVertex
 10
1.175589549255413
 20
2.945966913172521
 30
0.0
  0
VERTEX
  5
2AE
330
2A0
100
AcDbEntity
  8
Visible (ANSI)
100
AcDbVertex
100
AcDb2dVertex
 10
1.177368487679859
 20
2.94564453097317
 30
0.0
  0
VERTEX
  5
2AF
330
2A0
100
AcDbEntity
  8
Visible (ANSI)
100
AcDbVertex
100
AcDb2dVertex
 10
1.1791731655641
 20
2.945195528966625
 30
0.0
  0
VERTEX
  5
2B0
330
2A0
100
AcDbEntity
  8
Visible (ANSI)
100
AcDbVertex
100
AcDb2dVertex
 10
1.180997975370642
 20
2.944621636652408
 30
0.0
  0
VERTEX
  5
2B1
330
2A0
100
AcDbEntity
  8
Visible (ANSI)
100
AcDbVertex
100
AcDb2dVertex
 10
1.18283721154915
 20
2.94392498183455
 30
0.0
  0
VERTEX
  5
2B2
330
2A0
100
AcDbEntity
  8
Visible (ANSI)
100
AcDbVertex
100
AcDb2dVertex
 10
1.184685131965254
 20
2.94310811180971
 30
0.0
  0
VERTEX
  5
2B3
330
2A0
100
AcDbEntity
  8
Visible (ANSI)
100
AcDbVertex
100
AcDb2dVertex
 10
1.186535957783057
 20
2.942173967028836
 30
0.0
  0
VERTEX
  5
2B4
330
2A0
100
AcDbEntity
  8
Visible (ANSI)
100
AcDbVertex
100
AcDb2dVertex
 10
1.188383925849505
 20
2.941125893544724
 30
0.0
  0
VERTEX
  5
2B5
330
2A0
100
AcDbEntity
  8
Visible (ANSI)
100
AcDbVertex
100
AcDb2dVertex
 10
1.190223254190334
 20
2.939967601296952
 30
0.0
  0
VERTEX
  5
2B6
330
2A0
100
AcDbEntity
  8
Visible (ANSI)
100
AcDbVertex
100
AcDb2dVertex
 10
1.192048192651038
 20
2.93870316766667
 30
0.0
  0
VERTEX
  5
2B7
330
2A0
100
AcDbEntity
  8
Visible (ANSI)
100
AcDbVertex
100
AcDb2dVertex
 10
1.193853062831527
 20
2.937337041669786
 30
0.0
  0
VERTEX
  5
2B8
330
2A0
100
AcDbEntity
  8
Visible (ANSI)
100
AcDbVertex
100
AcDb2dVertex
 10
1.195632228889703
 20
2.935873991717561
 30
0.0
  0
VERTEX
  5
2B9
330
2A0
100
AcDbEntity
  8
Visible (ANSI)
100
AcDbVertex
100
AcDb2dVertex
 10
1.197380140012639
 20
2.934319112355511
 30
0.0
  0
VERTEX
  5
2BA
330
2A0
100
AcDbEntity
  8
Visible (ANSI)
100
AcDbVertex
100
AcDb2dVertex
 10
1.199091375821682
 20
2.932677820329511
 30
0.0
  0
SEQEND
  5
2A3
330
2A0
100
AcDbEntity
  8
Visible (ANSI)
  0
POLYLINE
  5
2BB
330
37
100
AcDbEntity
  8
Visible (ANSI)
100
AcDb2dPolyline
 66
     1
 10
0.0
 20
0.0
 30
0.0
 70
   128
  0
VERTEX
  5
2BC
330
2BB
100
AcDbEntity
  8
Visible (ANSI)
100
AcDbVertex
100
AcDb2dVertex
 10
1.171835369345048
 20
2.948381606751218
 30
0.0
  0
VERTEX
  5
2BD
330
2BB
100
AcDbEntity
  8
Visible (ANSI)
100
AcDbVertex
100
AcDb2dVertex
 10
1.171966589861121
 20
2.948511310794892
 30
0.0
  0
VERTEX
  5
2BF
330
2BB
100
AcDbEntity
  8
Visible (ANSI)
100
AcDbVertex
100
AcDb2dVertex
 10
1.172098924745007
 20
2.948639461470886
 30
0.0
  0
VERTEX
  5
2C0
330
2BB
100
AcDbEntity
  8
Visible (ANSI)
100
AcDbVertex
100
AcDb2dVertex
 10
1.172232356747526
 20
2.948766052203008
 30
0.0
  0
VERTEX
  5
2C1
330
2BB
100
AcDbEntity
  8
Visible (ANSI)
100
AcDbVertex
100
AcDb2dVertex
 10
1.172366882546531
 20
2.948891074837469
 30
0.0
  0
VERTEX
  5
2C2
330
2BB
100
AcDbEntity
  8
Visible (ANSI)
100
AcDbVertex
100
AcDb2dVertex
 10
1.172502495127792
 20
2.949014525616577
 30
0.0
  0
VERTEX
  5
2C3
330
2BB
100
AcDbEntity
  8
Visible (ANSI)
100
AcDbVertex
100
AcDb2dVertex
 10
1.172639189599965
 20
2.949136399264078
 30
0.0
  0
VERTEX
  5
2C4
330
2BB
100
AcDbEntity
  8
Visible (ANSI)
100
AcDbVertex
100
AcDb2dVertex
 10
1.172776959133381
 20
2.949256692475267
 30
0.0
  0
VERTEX
  5
2C5
330
2BB
100
AcDbEntity
  8
Visible (ANSI)
100
AcDbVertex
100
AcDb2dVertex
 10
1.172915791740143
 20
2.949375391400323
 30
0.0
  0
VERTEX
  5
2C6
330
2BB
100
AcDbEntity
  8
Visible (ANSI)
100
AcDbVertex
100
AcDb2dVertex
 10
1.173055699122157
 20
2.949492500343103
 30
0.0
  0
VERTEX
  5
2C7
330
2BB
100
AcDbEntity
  8
Visible (ANSI)
100
AcDbVertex
100
AcDb2dVertex
 10
1.173196664583931
 20
2.949608014086381
 30
0.0
  0
VERTEX
  5
2C8
330
2BB
100
AcDbEntity
  8
Visible (ANSI)
100
AcDbVertex
100
AcDb2dVertex
 10
1.173338684434194
 20
2.949721923570389
 30
0.0
  0
VERTEX
  5
2C9
330
2BB
100
AcDbEntity
  8
Visible (ANSI)
100
AcDbVertex
100
AcDb2dVertex
 10
1.173481750274079
 20
2.949834228367959
 30
0.0
  0
VERTEX
  5
2CA
330
2BB
100
AcDbEntity
  8
Visible (ANSI)
100
AcDbVertex
100
AcDb2dVertex
 10
1.173625858781441
 20
2.949944920325302
 30
0.0
  0
VERTEX
  5
2CB
330
2BB
100
AcDbEntity
  8
Visible (ANSI)
100
AcDbVertex
100
AcDb2dVertex
 10
1.17377099446086
 20
2.95005399044168
 30
0.0
  0
VERTEX
  5
2CC
330
2BB
100
AcDbEntity
  8
Visible (ANSI)
100
AcDbVertex
100
AcDb2dVertex
 10
1.173917169014241
 20
2.950161443020953
 30
0.0
  0
VERTEX
  5
2CD
330
2BB
100
AcDbEntity
  8
Visible (ANSI)
100
AcDbVertex
100
AcDb2dVertex
 10
1.174064367684418
 20
2.950267270874338
 30
0.0
  0
VERTEX
  5
2CE
330
2BB
100
AcDbEntity
  8
Visible (ANSI)
100
AcDbVertex
100
AcDb2dVertex
 10
1.174212584841795
 20
2.950371466913625
 30
0.0
  0
VERTEX
  5
2CF
330
2BB
100
AcDbEntity
  8
Visible (ANSI)
100
AcDbVertex
100
AcDb2dVertex
 10
1.174361812087505
 20
2.950474030711643
 30
0.0
  0
VERTEX
  5
2D0
330
2BB
100
AcDbEntity
  8
Visible (ANSI)
100
AcDbVertex
100
AcDb2dVertex
 10
1.174512046099402
 20
2.950574954114604
 30
0.0
  0
VERTEX
  5
2D1
330
2BB
100
AcDbEntity
  8
Visible (ANSI)
100
AcDbVertex
100
AcDb2dVertex
 10
1.174663280047818
 20
2.950674233817805
 30
0.0
  0
VERTEX
  5
2D2
330
2BB
100
AcDbEntity
  8
Visible (ANSI)
100
AcDbVertex
100
AcDb2dVertex
 10
1.174815496868137
 20
2.950771863698042
 30
0.0
  0
VERTEX
  5
2D3
330
2BB
100
AcDbEntity
  8
Visible (ANSI)
100
AcDbVertex
100
AcDb2dVertex
 10
1.17496870983146
 20
2.950867845181644
 30
0.0
  0
VERTEX
  5
2D4
330
2BB
100
AcDbEntity
  8
Visible (ANSI)
100
AcDbVertex
100
AcDb2dVertex
 10
1.17512290454975
 20
2.950962171985801
 30
0.0
  0
VERTEX
  5
2D5
330
2BB
100
AcDbEntity
  8
Visible (ANSI)
100
AcDbVertex
100
AcDb2dVertex
 10
1.175278073085957
 20
2.951054838087884
 30
0.0
  0
SEQEND
  5
2BE
330
2BB
100
AcDbEntity
  8
Visible (ANSI)
  0
POLYLINE
  5
2D6
330
37
100
AcDbEntity
  8
Visible (ANSI)
100
AcDb2dPolyline
 66
     1
 10
0.0
 20
0.0
 30
0.0
 70
   128
  0
VERTEX
  5
2D7
330
2D6
100
AcDbEntity
  8
Visible (ANSI)
100
AcDbVertex
100
AcDb2dVertex
 10
1.203256763145621
 20
2.936180356656448
 30
0.0
  0
VERTEX
  5
2D8
330
2D6
100
AcDbEntity
  8
Visible (ANSI)
100
AcDbVertex
100
AcDb2dVertex
 10
1.201770401927412
 20
2.93756979294472
 30
0.0
  0
VERTEX
  5
2DA
330
2D6
100
AcDbEntity
  8
Visible (ANSI)
100
AcDbVertex
100
AcDb2dVertex
 10
1.200257896806108
 20
2.938893896526257
 30
0.0
  0
VERTEX
  5
2DB
330
2D6
100
AcDbEntity
  8
Visible (ANSI)
100
AcDbVertex
100
AcDb2dVertex
 10
1.19872274581194
 20
2.940149250358203
 30
0.0
  0
VERTEX
  5
2DC
330
2D6
100
AcDbEntity
  8
Visible (ANSI)
100
AcDbVertex
100
AcDb2dVertex
 10
1.19716850088318
 20
2.94133260040894
 30
0.0
  0
VERTEX
  5
2DD
330
2D6
100
AcDbEntity
  8
Visible (ANSI)
100
AcDbVertex
100
AcDb2dVertex
 10
1.195598762422323
 20
2.942440876572415
 30
0.0
  0
VERTEX
  5
2DE
330
2D6
100
AcDbEntity
  8
Visible (ANSI)
100
AcDbVertex
100
AcDb2dVertex
 10
1.194017168396672
 20
2.943471190940096
 30
0.0
  0
VERTEX
  5
2DF
330
2D6
100
AcDbEntity
  8
Visible (ANSI)
100
AcDbVertex
100
AcDb2dVertex
 10
1.192427385384965
 20
2.944420849470705
 30
0.0
  0
VERTEX
  5
2E0
330
2D6
100
AcDbEntity
  8
Visible (ANSI)
100
AcDbVertex
100
AcDb2dVertex
 10
1.190833104965786
 20
2.945287360789454
 30
0.0
  0
VERTEX
  5
2E1
330
2D6
100
AcDbEntity
  8
Visible (ANSI)
100
AcDbVertex
100
AcDb2dVertex
 10
1.189238022535835
 20
2.946068434667134
 30
0.0
  0
VERTEX
  5
2E2
330
2D6
100
AcDbEntity
  8
Visible (ANSI)
100
AcDbVertex
100
AcDb2dVertex
 10
1.187645841993128
 20
2.946761995196674
 30
0.0
  0
VERTEX
  5
2E3
330
2D6
100
AcDbEntity
  8
Visible (ANSI)
100
AcDbVertex
100
AcDb2dVertex
 10
1.186060254808947
 20
2.94736618157707
 30
0.0
  0
VERTEX
  5
2E4
330
2D6
100
AcDbEntity
  8
Visible (ANSI)
100
AcDbVertex
100
AcDb2dVertex
 10
1.184484940073368
 20
2.947879358318535
 30
0.0
  0
VERTEX
  5
2E5
330
2D6
100
AcDbEntity
  8
Visible (ANSI)
100
AcDbVertex
100
AcDb2dVertex
 10
1.182923549866763
 20
2.948300109618866
 30
0.0
  0
VERTEX
  5
2E6
330
2D6
100
AcDbEntity
  8
Visible (ANSI)
100
AcDbVertex
100
AcDb2dVertex
 10
1.181379702013849
 20
2.948627251859356
 30
0.0
  0
VERTEX
  5
2E7
330
2D6
100
AcDbEntity
  8
Visible (ANSI)
100
AcDbVertex
100
AcDb2dVertex
 10
1.179856970577439
 20
2.948859830459689
 30
0.0
  0
VERTEX
  5
2E8
330
2D6
100
AcDbEntity
  8
Visible (ANSI)
100
AcDbVertex
100
AcDb2dVertex
 10
1.178358878843399
 20
2.948997129576119
 30
0.0
  0
VERTEX
  5
2E9
330
2D6
100
AcDbEntity
  8
Visible (ANSI)
100
AcDbVertex
100
AcDb2dVertex
 10
1.176888883953894
 20
2.949038664665889
 30
0.0
  0
VERTEX
  5
2EA
330
2D6
100
AcDbEntity
  8
Visible (ANSI)
100
AcDbVertex
100
AcDb2dVertex
 10
1.175450381567822
 20
2.948984190561219
 30
0.0
  0
VERTEX
  5
2EB
330
2D6
100
AcDbEntity
  8
Visible (ANSI)
100
AcDbVertex
100
AcDb2dVertex
 10
1.17404668491
 20
2.948833697150662
 30
0.0
  0
VERTEX
  5
2EC
330
2D6
100
AcDbEntity
  8
Visible (ANSI)
100
AcDbVertex
100
AcDb2dVertex
 10
1.17268101895618
 20
2.948587415293771
 30
0.0
  0
VERTEX
  5
2ED
330
2D6
100
AcDbEntity
  8
Visible (ANSI)
100
AcDbVertex
100
AcDb2dVertex
 10
1.171356517018224
 20
2.948245815168749
 30
0.0
  0
VERTEX
  5
2EE
330
2D6
100
AcDbEntity
  8
Visible (ANSI)
100
AcDbVertex
100
AcDb2dVertex
 10
1.170076213268864
 20
2.947809594654351
 30
0.0
  0
VERTEX
  5
2EF
330
2D6
100
AcDbEntity
  8
Visible (ANSI)
100
AcDbVertex
100
AcDb2dVertex
 10
1.168843026496853
 20
2.947279693290382
 30
0.0
  0
VERTEX
  5
2F0
330
2D6
100
AcDbEntity
  8
Visible (ANSI)
100
AcDbVertex
100
AcDb2dVertex
 10
1.167659762968917
 20
2.946657279115211
 30
0.0
  0
SEQEND
  5
2D9
330
2D6
100
AcDbEntity
  8
Visible (ANSI)
  0
POLYLINE
  5
2F1
330
37
100
AcDbEntity
  8
Visible (ANSI)
100
AcDb2dPolyline
 66
     1
 10
0.0
 20
0.0
 30
0.0
 70
   128
  0
VERTEX
  5
2F2
330
2F1
100
AcDbEntity
  8
Visible (ANSI)
100
AcDbVertex
100
AcDb2dVertex
 10
1.191694582540666
 20
2.927838569235634
 30
0.0
  0
VERTEX
  5
2F3
330
2F1
100
AcDbEntity
  8
Visible (ANSI)
100
AcDbVertex
100
AcDb2dVertex
 10
1.19018448573789
 20
2.929315970509707
 30
0.0
  0
VERTEX
  5
2F5
330
2F1
100
AcDbEntity
  8
Visible (ANSI)
100
AcDbVertex
100
AcDb2dVertex
 10
1.188644081371203
 20
2.930726651195085
 30
0.0
  0
VERTEX
  5
2F6
330
2F1
100
AcDbEntity
  8
Visible (ANSI)
100
AcDbVertex
100
AcDb2dVertex
 10
1.187077147265654
 20
2.932066748196839
 30
0.0
  0
VERTEX
  5
2F7
330
2F1
100
AcDbEntity
  8
Visible (ANSI)
100
AcDbVertex
100
AcDb2dVertex
 10
1.185487531691072
 20
2.933332585616863
 30
0.0
  0
VERTEX
  5
2F8
330
2F1
100
AcDbEntity
  8
Visible (ANSI)
100
AcDbVertex
100
AcDb2dVertex
 10
1.183879140475131
 20
2.934520677610282
 30
0.0
  0
VERTEX
  5
2F9
330
2F1
100
AcDbEntity
  8
Visible (ANSI)
100
AcDbVertex
100
AcDb2dVertex
 10
1.182255930881859
 20
2.935627747426212
 30
0.0
  0
VERTEX
  5
2FA
330
2F1
100
AcDbEntity
  8
Visible (ANSI)
100
AcDbVertex
100
AcDb2dVertex
 10
1.180621897127043
 20
2.936650726763491
 30
0.0
  0
VERTEX
  5
2FB
330
2F1
100
AcDbEntity
  8
Visible (ANSI)
100
AcDbVertex
100
AcDb2dVertex
 10
1.178981063881923
 20
2.937586772629821
 30
0.0
  0
VERTEX
  5
2FC
330
2F1
100
AcDbEntity
  8
Visible (ANSI)
100
AcDbVertex
100
AcDb2dVertex
 10
1.177337470940579
 20
2.938433267560045
 30
0.0
  0
VERTEX
  5
2FD
330
2F1
100
AcDbEntity
  8
Visible (ANSI)
100
AcDbVertex
100
AcDb2dVertex
 10
1.175695169135146
 20
2.93918783145957
 30
0.0
  0
VERTEX
  5
2FE
330
2F1
100
AcDbEntity
  8
Visible (ANSI)
100
AcDbVertex
100
AcDb2dVertex
 10
1.174058203076263
 20
2.939848326345479
 30
0.0
  0
VERTEX
  5
2FF
330
2F1
100
AcDbEntity
  8
Visible (ANSI)
100
AcDbVertex
100
AcDb2dVertex
 10
1.172430602638757
 20
2.940412857318233
 30
0.0
  0
VERTEX
  5
300
330
2F1
100
AcDbEntity
  8
Visible (ANSI)
100
AcDbVertex
100
AcDb2dVertex
 10
1.17081637668485
 20
2.940879784071797
 30
0.0
  0
VERTEX
  5
301
330
2F1
100
AcDbEntity
  8
Visible (ANSI)
100
AcDbVertex
100
AcDb2dVertex
 10
1.169219495804614
 20
2.941247725634761
 30
0.0
  0
VERTEX
  5
302
330
2F1
100
AcDbEntity
  8
Visible (ANSI)
100
AcDbVertex
100
AcDb2dVertex
 10
1.167643886455468
 20
2.941515556079863
 30
0.0
  0
VERTEX
  5
303
330
2F1
100
AcDbEntity
  8
Visible (ANSI)
100
AcDbVertex
100
AcDb2dVertex
 10
1.166093417393898
 20
2.941682418324872
 30
0.0
  0
VERTEX
  5
304
330
2F1
100
AcDbEntity
  8
Visible (ANSI)
100
AcDbVertex
100
AcDb2dVertex
 10
1.164571894276772
 20
2.941747714246653
 30
0.0
  0
VERTEX
  5
305
330
2F1
100
AcDbEntity
  8
Visible (ANSI)
100
AcDbVertex
100
AcDb2dVertex
 10
1.163083045123903
 20
2.941711119467827
 30
0.0
  0
VERTEX
  5
306
330
2F1
100
AcDbEntity
  8
Visible (ANSI)
100
AcDbVertex
100
AcDb2dVertex
 10
1.161630511735433
 20
2.94157256902075
 30
0.0
  0
VERTEX
  5
307
330
2F1
100
AcDbEntity
  8
Visible (ANSI)
100
AcDbVertex
100
AcDb2dVertex
 10
1.160217839538391
 20
2.941332272800756
 30
0.0
  0
VERTEX
  5
308
330
2F1
100
AcDbEntity
  8
Visible (ANSI)
100
AcDbVertex
100
AcDb2dVertex
 10
1.158848470018774
 20
2.940990710449492
 30
0.0
  0
VERTEX
  5
309
330
2F1
100
AcDbEntity
  8
Visible (ANSI)
100
AcDbVertex
100
AcDb2dVertex
 10
1.157525734815506
 20
2.940548616859302
 30
0.0
  0
VERTEX
  5
30A
330
2F1
100
AcDbEntity
  8
Visible (ANSI)
100
AcDbVertex
100
AcDb2dVertex
 10
1.156252843895562
 20
2.940007004866884
 30
0.0
  0
VERTEX
  5
30B
330
2F1
100
AcDbEntity
  8
Visible (ANSI)
100
AcDbVertex
100
AcDb2dVertex
 10
1.155032857536882
 20
2.939367131864996
 30
0.0
  0
SEQEND
  5
2F4
330
2F1
100
AcDbEntity
  8
Visible (ANSI)
  0
POLYLINE
  5
30C
330
37
100
AcDbEntity
  8
Visible (ANSI)
100
AcDb2dPolyline
 66
     1
 10
0.0
 20
0.0
 30
0.0
 70
   128
  0
VERTEX
  5
30D
330
30C
100
AcDbEntity
  8
Visible (ANSI)
100
AcDbVertex
100
AcDb2dVertex
 10
1.177768624068007
 20
2.921825088602328
 30
0.0
  0
VERTEX
  5
30E
330
30C
100
AcDbEntity
  8
Visible (ANSI)
100
AcDbVertex
100
AcDb2dVertex
 10
1.17628783778743
 20
2.92319545813461
 30
0.0
  0
VERTEX
  5
310
330
30C
100
AcDbEntity
  8
Visible (ANSI)
100
AcDbVertex
100
AcDb2dVertex
 10
1.174781775163895
 20
2.924500835012905
 30
0.0
  0
VERTEX
  5
311
330
30C
100
AcDbEntity
  8
Visible (ANSI)
100
AcDbVertex
100
AcDb2dVertex
 10
1.173253863673916
 20
2.925737883794507
 30
0.0
  0
VERTEX
  5
312
330
30C
100
AcDbEntity
  8
Visible (ANSI)
100
AcDbVertex
100
AcDb2dVertex
 10
1.171707609735825
 20
2.926903451397478
 30
0.0
  0
VERTEX
  5
313
330
30C
100
AcDbEntity
  8
Visible (ANSI)
100
AcDbVertex
100
AcDb2dVertex
 10
1.170146540370387
 20
2.927994549629543
 30
0.0
  0
VERTEX
  5
314
330
30C
100
AcDbEntity
  8
Visible (ANSI)
100
AcDbVertex
100
AcDb2dVertex
 10
1.168574225495396
 20
2.929008367486917
 30
0.0
  0
VERTEX
  5
315
330
30C
100
AcDbEntity
  8
Visible (ANSI)
100
AcDbVertex
100
AcDb2dVertex
 10
1.166994264632009
 20
2.929942291949855
 30
0.0
  0
VERTEX
  5
316
330
30C
100
AcDbEntity
  8
Visible (ANSI)
100
AcDbVertex
100
AcDb2dVertex
 10
1.165410265191082
 20
2.930793896336756
 30
0.0
  0
VERTEX
  5
317
330
30C
100
AcDbEntity
  8
Visible (ANSI)
100
AcDbVertex
100
AcDb2dVertex
 10
1.163825870836613
 20
2.931560969495853
 30
0.0
  0
VERTEX
  5
318
330
30C
100
AcDbEntity
  8
Visible (ANSI)
100
AcDbVertex
100
AcDb2dVertex
 10
1.162244702729869
 20
2.932241493632024
 30
0.0
  0
VERTEX
  5
319
330
30C
100
AcDbEntity
  8
Visible (ANSI)
100
AcDbVertex
100
AcDb2dVertex
 10
1.160670378594728
 20
2.932833662453079
 30
0.0
  0
VERTEX
  5
31A
330
30C
100
AcDbEntity
  8
Visible (ANSI)
100
AcDbVertex
100
AcDb2dVertex
 10
1.159106502066443
 20
2.933335894151865
 30
0.0
  0
VERTEX
  5
31B
330
30C
100
AcDbEntity
  8
Visible (ANSI)
100
AcDbVertex
100
AcDb2dVertex
 10
1.157556643135828
 20
2.933746812439791
 30
0.0
  0
VERTEX
  5
31C
330
30C
100
AcDbEntity
  8
Visible (ANSI)
100
AcDbVertex
100
AcDb2dVertex
 10
1.15602436265882
 20
2.934065284784201
 30
0.0
  0
VERTEX
  5
31D
330
30C
100
AcDbEntity
  8
Visible (ANSI)
100
AcDbVertex
100
AcDb2dVertex
 10
1.154513150393909
 20
2.93429039068253
 30
0.0
  0
VERTEX
  5
31E
330
30C
100
AcDbEntity
  8
Visible (ANSI)
100
AcDbVertex
100
AcDb2dVertex
 10
1.153026458419541
 20
2.934421438024805
 30
0.0
  0
VERTEX
  5
31F
330
30C
100
AcDbEntity
  8
Visible (ANSI)
100
AcDbVertex
100
AcDb2dVertex
 10
1.151567671701301
 20
2.934457966987822
 30
0.0
  0
VERTEX
  5
320
330
30C
100
AcDbEntity
  8
Visible (ANSI)
100
AcDbVertex
100
AcDb2dVertex
 10
1.150140115383392
 20
2.934399747744382
 30
0.0
  0
VERTEX
  5
321
330
30C
100
AcDbEntity
  8
Visible (ANSI)
100
AcDbVertex
100
AcDb2dVertex
 10
1.148747024341123
 20
2.934246775138099
 30
0.0
  0
VERTEX
  5
322
330
30C
100
AcDbEntity
  8
Visible (ANSI)
100
AcDbVertex
100
AcDb2dVertex
 10
1.147391574705521
 20
2.933999297222606
 30
0.0
  0
VERTEX
  5
323
330
30C
100
AcDbEntity
  8
Visible (ANSI)
100
AcDbVertex
100
AcDb2dVertex
 10
1.146076827808421
 20
2.9336577711196
 30
0.0
  0
VERTEX
  5
324
330
30C
100
AcDbEntity
  8
Visible (ANSI)
100
AcDbVertex
100
AcDb2dVertex
 10
1.14480575330821
 20
2.933222891130876
 30
0.0
  0
VERTEX
  5
325
330
30C
100
AcDbEntity
  8
Visible (ANSI)
100
AcDbVertex
100
AcDb2dVertex
 10
1.14358121101783
 20
2.932695579897198
 30
0.0
  0
VERTEX
  5
326
330
30C
100
AcDbEntity
  8
Visible (ANSI)
100
AcDbVertex
100
AcDb2dVertex
 10
1.142405943808222
 20
2.932076979824722
 30
0.0
  0
SEQEND
  5
30F
330
30C
100
AcDbEntity
  8
Visible (ANSI)
  0
POLYLINE
  5
327
330
37
100
AcDbEntity
  8
Visible (ANSI)
100
AcDb2dPolyline
 66
     1
 10
0.0
 20
0.0
 30
0.0
 70
   128
  0
VERTEX
  5
328
330
327
100
AcDbEntity
  8
Visible (ANSI)
100
AcDbVertex
100
AcDb2dVertex
 10
1.161722924864532
 20
2.917569160689994
 30
0.0
  0
VERTEX
  5
329
330
327
100
AcDbEntity
  8
Visible (ANSI)
100
AcDbVertex
100
AcDb2dVertex
 10
1.160336197564323
 20
2.918673465167054
 30
0.0
  0
VERTEX
  5
32B
330
327
100
AcDbEntity
  8
Visible (ANSI)
100
AcDbVertex
100
AcDb2dVertex
 10
1.158934981826952
 20
2.919718764758698
 30
0.0
  0
VERTEX
  5
32C
330
327
100
AcDbEntity
  8
Visible (ANSI)
100
AcDbVertex
100
AcDb2dVertex
 10
1.157521909396825
 20
2.920702869960777
 30
0.0
  0
VERTEX
  5
32D
330
327
100
AcDbEntity
  8
Visible (ANSI)
100
AcDbVertex
100
AcDb2dVertex
 10
1.156099624942485
 20
2.921623705852053
 30
0.0
  0
VERTEX
  5
32E
330
327
100
AcDbEntity
  8
Visible (ANSI)
100
AcDbVertex
100
AcDb2dVertex
 10
1.15467080294906
 20
2.922479334184316
 30
0.0
  0
VERTEX
  5
32F
330
327
100
AcDbEntity
  8
Visible (ANSI)
100
AcDbVertex
100
AcDb2dVertex
 10
1.153238104287268
 20
2.923267929265089
 30
0.0
  0
VERTEX
  5
330
330
327
100
AcDbEntity
  8
Visible (ANSI)
100
AcDbVertex
100
AcDb2dVertex
 10
1.151804223593021
 20
2.923987814264997
 30
0.0
  0
VERTEX
  5
331
330
327
100
AcDbEntity
  8
Visible (ANSI)
100
AcDbVertex
100
AcDb2dVertex
 10
1.150371856116904
 20
2.92463745012413
 30
0.0
  0
VERTEX
  5
332
330
327
100
AcDbEntity
  8
Visible (ANSI)
100
AcDbVertex
100
AcDb2dVertex
 10
1.148943671887908
 20
2.925215427270222
 30
0.0
  0
VERTEX
  5
333
330
327
100
AcDbEntity
  8
Visible (ANSI)
100
AcDbVertex
100
AcDb2dVertex
 10
1.14752235547958
 20
2.925720486604208
 30
0.0
  0
VERTEX
  5
334
330
327
100
AcDbEntity
  8
Visible (ANSI)
100
AcDbVertex
100
AcDb2dVertex
 10
1.146110568761501
 20
2.926151517285989
 30
0.0
  0
VERTEX
  5
335
330
327
100
AcDbEntity
  8
Visible (ANSI)
100
AcDbVertex
100
AcDb2dVertex
 10
1.144710965739586
 20
2.92650755528322
 30
0.0
  0
VERTEX
  5
336
330
327
100
AcDbEntity
  8
Visible (ANSI)
100
AcDbVertex
100
AcDb2dVertex
 10
1.143326148477892
 20
2.926787777852366
 30
0.0
  0
VERTEX
  5
337
330
327
100
AcDbEntity
  8
Visible (ANSI)
100
AcDbVertex
100
AcDb2dVertex
 10
1.141958713925345
 20
2.926991525031238
 30
0.0
  0
VERTEX
  5
338
330
327
100
AcDbEntity
  8
Visible (ANSI)
100
AcDbVertex
100
AcDb2dVertex
 10
1.140611228794961
 20
2.927118288066545
 30
0.0
  0
VERTEX
  5
339
330
327
100
AcDbEntity
  8
Visible (ANSI)
100
AcDbVertex
100
AcDb2dVertex
 10
1.13928618815268
 20
2.927167701596804
 30
0.0
  0
VERTEX
  5
33A
330
327
100
AcDbEntity
  8
Visible (ANSI)
100
AcDbVertex
100
AcDb2dVertex
 10
1.137986073457758
 20
2.927139569116143
 30
0.0
  0
VERTEX
  5
33B
330
327
100
AcDbEntity
  8
Visible (ANSI)
100
AcDbVertex
100
AcDb2dVertex
 10
1.136713304516863
 20
2.927033840988176
 30
0.0
  0
VERTEX
  5
33C
330
327
100
AcDbEntity
  8
Visible (ANSI)
100
AcDbVertex
100
AcDb2dVertex
 10
1.135470253677183
 20
2.926850631593135
 30
0.0
  0
VERTEX
  5
33D
330
327
100
AcDbEntity
  8
Visible (ANSI)
100
AcDbVertex
100
AcDb2dVertex
 10
1.134259215040072
 20
2.926590192600627
 30
0.0
  0
VERTEX
  5
33E
330
327
100
AcDbEntity
  8
Visible (ANSI)
100
AcDbVertex
100
AcDb2dVertex
 10
1.133082436242991
 20
2.926252944639142
 30
0.0
  0
VERTEX
  5
33F
330
327
100
AcDbEntity
  8
Visible (ANSI)
100
AcDbVertex
100
AcDb2dVertex
 10
1.131942098091851
 20
2.925839467296164
 30
0.0
  0
VERTEX
  5
340
330
327
100
AcDbEntity
  8
Visible (ANSI)
100
AcDbVertex
100
AcDb2dVertex
 10
1.130840288749139
 20
2.925350469027192
 30
0.0
  0
VERTEX
  5
341
330
327
100
AcDbEntity
  8
Visible (ANSI)
100
AcDbVertex
100
AcDb2dVertex
 10
1.129779038376187
 20
2.924786832574507
 30
0.0
  0
SEQEND
  5
32A
330
327
100
AcDbEntity
  8
Visible (ANSI)
  0
POLYLINE
  5
342
330
37
100
AcDbEntity
  8
Visible (ANSI)
100
AcDb2dPolyline
 66
     1
 10
0.0
 20
0.0
 30
0.0
 70
   128
  0
VERTEX
  5
343
330
342
100
AcDbEntity
  8
Visible (ANSI)
100
AcDbVertex
100
AcDb2dVertex
 10
1.14197244426712
 20
2.91523015609114
 30
0.0
  0
VERTEX
  5
344
330
342
100
AcDbEntity
  8
Visible (ANSI)
100
AcDbVertex
100
AcDb2dVertex
 10
1.140841287949152
 20
2.915855805217018
 30
0.0
  0
VERTEX
  5
346
330
342
100
AcDbEntity
  8
Visible (ANSI)
100
AcDbVertex
100
AcDb2dVertex
 10
1.139709125372487
 20
2.916438775889064
 30
0.0
  0
VERTEX
  5
347
330
342
100
AcDbEntity
  8
Visible (ANSI)
100
AcDbVertex
100
AcDb2dVertex
 10
1.138577280286124
 20
2.916978293182716
 30
0.0
  0
VERTEX
  5
348
330
342
100
AcDbEntity
  8
Visible (ANSI)
100
AcDbVertex
100
AcDb2dVertex
 10
1.137447075190205
 20
2.91747362957523
 30
0.0
  0
VERTEX
  5
349
330
342
100
AcDbEntity
  8
Visible (ANSI)
100
AcDbVertex
100
AcDb2dVertex
 10
1.136319814326493
 20
2.917924111166179
 30
0.0
  0
VERTEX
  5
34A
330
342
100
AcDbEntity
  8
Visible (ANSI)
100
AcDbVertex
100
AcDb2dVertex
 10
1.135196848760223
 20
2.918329139371127
 30
0.0
  0
VERTEX
  5
34B
330
342
100
AcDbEntity
  8
Visible (ANSI)
100
AcDbVertex
100
AcDb2dVertex
 10
1.134079473496845
 20
2.918688152198879
 30
0.0
  0
VERTEX
  5
34C
330
342
100
AcDbEntity
  8
Visible (ANSI)
100
AcDbVertex
100
AcDb2dVertex
 10
1.132968993071234
 20
2.91900065055484
 30
0.0
  0
VERTEX
  5
34D
330
342
100
AcDbEntity
  8
Visible (ANSI)
100
AcDbVertex
100
AcDb2dVertex
 10
1.131866703016111
 20
2.919266190632461
 30
0.0
  0
VERTEX
  5
34E
330
342
100
AcDbEntity
  8
Visible (ANSI)
100
AcDbVertex
100
AcDb2dVertex
 10
1.130773891845904
 20
2.919484392146827
 30
0.0
  0
VERTEX
  5
34F
330
342
100
AcDbEntity
  8
Visible (ANSI)
100
AcDbVertex
100
AcDb2dVertex
 10
1.129691830812243
 20
2.9196549333776
 30
0.0
  0
VERTEX
  5
350
330
342
100
AcDbEntity
  8
Visible (ANSI)
100
AcDbVertex
100
AcDb2dVertex
 10
1.128621784841187
 20
2.919777547732887
 30
0.0
  0
VERTEX
  5
351
330
342
100
AcDbEntity
  8
Visible (ANSI)
100
AcDbVertex
100
AcDb2dVertex
 10
1.127564995781023
 20
2.919852033100037
 30
0.0
  0
VERTEX
  5
352
330
342
100
AcDbEntity
  8
Visible (ANSI)
100
AcDbVertex
100
AcDb2dVertex
 10
1.1265226935704
 20
2.919878245611779
 30
0.0
  0
VERTEX
  5
353
330
342
100
AcDbEntity
  8
Visible (ANSI)
100
AcDbVertex
100
AcDb2dVertex
 10
1.125496091623425
 20
2.919856101777375
 30
0.0
  0
VERTEX
  5
354
330
342
100
AcDbEntity
  8
Visible (ANSI)
100
AcDbVertex
100
AcDb2dVertex
 10
1.124486379999993
 20
2.919785575177916
 30
0.0
  0
VERTEX
  5
355
330
342
100
AcDbEntity
  8
Visible (ANSI)
100
AcDbVertex
100
AcDb2dVertex
 10
1.123494729097065
 20
2.919666705526094
 30
0.0
  0
VERTEX
  5
356
330
342
100
AcDbEntity
  8
Visible (ANSI)
100
AcDbVertex
100
AcDb2dVertex
 10
1.122522273979045
 20
2.919499577895159
 30
0.0
  0
VERTEX
  5
357
330
342
100
AcDbEntity
  8
Visible (ANSI)
100
AcDbVertex
100
AcDb2dVertex
 10
1.121570166075118
 20
2.919284372122339
 30
0.0
  0
VERTEX
  5
358
330
342
100
AcDbEntity
  8
Visible (ANSI)
100
AcDbVertex
100
AcDb2dVertex
 10
1.12063949134113
 20
2.919021294991564
 30
0.0
  0
VERTEX
  5
359
330
342
100
AcDbEntity
  8
Visible (ANSI)
100
AcDbVertex
100
AcDb2dVertex
 10
1.119731321311348
 20
2.918710621323496
 30
0.0
  0
VERTEX
  5
35A
330
342
100
AcDbEntity
  8
Visible (ANSI)
100
AcDbVertex
100
AcDb2dVertex
 10
1.118846701027439
 20
2.918352688765691
 30
0.0
  0
VERTEX
  5
35B
330
342
100
AcDbEntity
  8
Visible (ANSI)
100
AcDbVertex
100
AcDb2dVertex
 10
1.117986643777991
 20
2.917947891610368
 30
0.0
  0
VERTEX
  5
35C
330
342
100
AcDbEntity
  8
Visible (ANSI)
100
AcDbVertex
100
AcDb2dVertex
 10
1.117152132944152
 20
2.917496685324292
 30
0.0
  0
SEQEND
  5
345
330
342
100
AcDbEntity
  8
Visible (ANSI)
  0
POLYLINE
  5
35D
330
37
100
AcDbEntity
  8
Visible (ANSI)
100
AcDb2dPolyline
 66
     1
 10
0.0
 20
0.0
 30
0.0
 70
   128
  0
VERTEX
  5
35E
330
35D
100
AcDbEntity
  8
Visible (ANSI)
100
AcDbVertex
100
AcDb2dVertex
 10
1.061092857639241
 20
2.858928648745102
 30
0.0
  0
VERTEX
  5
35F
330
35D
100
AcDbEntity
  8
Visible (ANSI)
100
AcDbVertex
100
AcDb2dVertex
 10
1.059694429589542
 20
2.860061780891966
 30
0.0
  0
VERTEX
  5
361
330
35D
100
AcDbEntity
  8
Visible (ANSI)
100
AcDbVertex
100
AcDb2dVertex
 10
1.058280467170909
 20
2.861135152797491
 30
0.0
  0
VERTEX
  5
362
330
35D
100
AcDbEntity
  8
Visible (ANSI)
100
AcDbVertex
100
AcDb2dVertex
 10
1.056853677659604
 20
2.862146456710326
 30
0.0
  0
VERTEX
  5
363
330
35D
100
AcDbEntity
  8
Visible (ANSI)
100
AcDbVertex
100
AcDb2dVertex
 10
1.055416778490622
 20
2.863093506985983
 30
0.0
  0
VERTEX
  5
364
330
35D
100
AcDbEntity
  8
Visible (ANSI)
100
AcDbVertex
100
AcDb2dVertex
 10
1.053972559610113
 20
2.863974277371066
 30
0.0
  0
VERTEX
  5
365
330
35D
100
AcDbEntity
  8
Visible (ANSI)
100
AcDbVertex
100
AcDb2dVertex
 10
1.052523772736387
 20
2.864786847205153
 30
0.0
  0
VERTEX
  5
366
330
35D
100
AcDbEntity
  8
Visible (ANSI)
100
AcDbVertex
100
AcDb2dVertex
 10
1.051073198724828
 20
2.86552944385806
 30
0.0
  0
VERTEX
  5
367
330
35D
100
AcDbEntity
  8
Visible (ANSI)
100
AcDbVertex
100
AcDb2dVertex
 10
1.049623620798443
 20
2.866200443500389
 30
0.0
  0
VERTEX
  5
368
330
35D
100
AcDbEntity
  8
Visible (ANSI)
100
AcDbVertex
100
AcDb2dVertex
 10
1.048177819402848
 20
2.866798363522429
 30
0.0
  0
VERTEX
  5
369
330
35D
100
AcDbEntity
  8
Visible (ANSI)
100
AcDbVertex
100
AcDb2dVertex
 10
1.046738568098705
 20
2.867321869274997
 30
0.0
  0
VERTEX
  5
36A
330
35D
100
AcDbEntity
  8
Visible (ANSI)
100
AcDbVertex
100
AcDb2dVertex
 10
1.045308628023193
 20
2.867769787391521
 30
0.0
  0
VERTEX
  5
36B
330
35D
100
AcDbEntity
  8
Visible (ANSI)
100
AcDbVertex
100
AcDb2dVertex
 10
1.043890737830877
 20
2.868141087828107
 30
0.0
  0
VERTEX
  5
36C
330
35D
100
AcDbEntity
  8
Visible (ANSI)
100
AcDbVertex
100
AcDb2dVertex
 10
1.042487616230445
 20
2.868434906911962
 30
0.0
  0
VERTEX
  5
36D
330
35D
100
AcDbEntity
  8
Visible (ANSI)
100
AcDbVertex
100
AcDb2dVertex
 10
1.041101947818024
 20
2.868650536122307
 30
0.0
  0
VERTEX
  5
36E
330
35D
100
AcDbEntity
  8
Visible (ANSI)
100
AcDbVertex
100
AcDb2dVertex
 10
1.039736383815438
 20
2.868787423902327
 30
0.0
  0
VERTEX
  5
36F
330
35D
100
AcDbEntity
  8
Visible (ANSI)
100
AcDbVertex
100
AcDb2dVertex
 10
1.03839353334774
 20
2.868845184531171
 30
0.0
  0
VERTEX
  5
370
330
35D
100
AcDbEntity
  8
Visible (ANSI)
100
AcDbVertex
100
AcDb2dVertex
 10
1.03707595781362
 20
2.868823591035747
 30
0.0
  0
VERTEX
  5
371
330
35D
100
AcDbEntity
  8
Visible (ANSI)
100
AcDbVertex
100
AcDb2dVertex
 10
1.035786169685331
 20
2.868722578974221
 30
0.0
  0
VERTEX
  5
372
330
35D
100
AcDbEntity
  8
Visible (ANSI)
100
AcDbVertex
100
AcDb2dVertex
 10
1.03452662134056
 20
2.868542252669895
 30
0.0
  0
VERTEX
  5
373
330
35D
100
AcDbEntity
  8
Visible (ANSI)
100
AcDbVertex
100
AcDb2dVertex
 10
1.033299706447869
 20
2.868282868424818
 30
0.0
  0
VERTEX
  5
374
330
35D
100
AcDbEntity
  8
Visible (ANSI)
100
AcDbVertex
100
AcDb2dVertex
 10
1.032107750920642
 20
2.867944852690961
 30
0.0
  0
VERTEX
  5
375
330
35D
100
AcDbEntity
  8
Visible (ANSI)
100
AcDbVertex
100
AcDb2dVertex
 10
1.030953007011046
 20
2.867528787574581
 30
0.0
  0
VERTEX
  5
376
330
35D
100
AcDbEntity
  8
Visible (ANSI)
100
AcDbVertex
100
AcDb2dVertex
 10
1.029837653955598
 20
2.867035419149621
 30
0.0
  0
VERTEX
  5
377
330
35D
100
AcDbEntity
  8
Visible (ANSI)
100
AcDbVertex
100
AcDb2dVertex
 10
1.02876378662328
 20
2.866465649782726
 30
0.0
  0
SEQEND
  5
360
330
35D
100
AcDbEntity
  8
Visible (ANSI)
  0
POLYLINE
  5
378
330
37
100
AcDbEntity
  8
Visible (ANSI)
100
AcDb2dPolyline
 66
     1
 10
0.0
 20
0.0
 30
0.0
 70
   128
  0
VERTEX
  5
379
330
378
100
AcDbEntity
  8
Visible (ANSI)
100
AcDbVertex
100
AcDb2dVertex
 10
1.051775384073488
 20
2.848658472111901
 30
0.0
  0
VERTEX
  5
37A
330
378
100
AcDbEntity
  8
Visible (ANSI)
100
AcDbVertex
100
AcDb2dVertex
 10
1.050288058273991
 20
2.850051303472464
 30
0.0
  0
VERTEX
  5
37C
330
378
100
AcDbEntity
  8
Visible (ANSI)
100
AcDbVertex
100
AcDb2dVertex
 10
1.048774416970601
 20
2.851378734930562
 30
0.0
  0
VERTEX
  5
37D
330
378
100
AcDbEntity
  8
Visible (ANSI)
100
AcDbVertex
100
AcDb2dVertex
 10
1.04723800028031
 20
2.852637346736399
 30
0.0
  0
VERTEX
  5
37E
330
378
100
AcDbEntity
  8
Visible (ANSI)
100
AcDbVertex
100
AcDb2dVertex
 10
1.045682340508078
 20
2.853823857038315
 30
0.0
  0
VERTEX
  5
37F
330
378
100
AcDbEntity
  8
Visible (ANSI)
100
AcDbVertex
100
AcDb2dVertex
 10
1.044111065033993
 20
2.854935187059404
 30
0.0
  0
VERTEX
  5
380
330
378
100
AcDbEntity
  8
Visible (ANSI)
100
AcDbVertex
100
AcDb2dVertex
 10
1.042527841986878
 20
2.855968444670363
 30
0.0
  0
VERTEX
  5
381
330
378
100
AcDbEntity
  8
Visible (ANSI)
100
AcDbVertex
100
AcDb2dVertex
 10
1.040936316135254
 20
2.856920902535508
 30
0.0
  0
VERTEX
  5
382
330
378
100
AcDbEntity
  8
Visible (ANSI)
100
AcDbVertex
100
AcDb2dVertex
 10
1.039340223366799
 20
2.857790072001267
 30
0.0
  0
VERTEX
  5
383
330
378
100
AcDbEntity
  8
Visible (ANSI)
100
AcDbVertex
100
AcDb2dVertex
 10
1.037743241443848
 20
2.8585736381109
 30
0.0
  0
VERTEX
  5
384
330
378
100
AcDbEntity
  8
Visible (ANSI)
100
AcDbVertex
100
AcDb2dVertex
 10
1.03614911931177
 20
2.859269529490506
 30
0.0
  0
VERTEX
  5
385
330
378
100
AcDbEntity
  8
Visible (ANSI)
100
AcDbVertex
100
AcDb2dVertex
 10
1.034561528592716
 20
2.859875855175694
 30
0.0
  0
VERTEX
  5
386
330
378
100
AcDbEntity
  8
Visible (ANSI)
100
AcDbVertex
100
AcDb2dVertex
 10
1.03298417904563
 20
2.860390980065586
 30
0.0
  0
VERTEX
  5
387
330
378
100
AcDbEntity
  8
Visible (ANSI)
100
AcDbVertex
100
AcDb2dVertex
 10
1.031420750743173
 20
2.860813488906496
 30
0.0
  0
VERTEX
  5
388
330
378
100
AcDbEntity
  8
Visible (ANSI)
100
AcDbVertex
100
AcDb2dVertex
 10
1.029874842906534
 20
2.861142174337963
 30
0.0
  0
VERTEX
  5
389
330
378
100
AcDbEntity
  8
Visible (ANSI)
100
AcDbVertex
100
AcDb2dVertex
 10
1.028350077598895
 20
2.861376093560655
 30
0.0
  0
VERTEX
  5
38A
330
378
100
AcDbEntity
  8
Visible (ANSI)
100
AcDbVertex
100
AcDb2dVertex
 10
1.026849953411182
 20
2.861514505496325
 30
0.0
  0
VERTEX
  5
38B
330
378
100
AcDbEntity
  8
Visible (ANSI)
100
AcDbVertex
100
AcDb2dVertex
 10
1.025377962076608
 20
2.861556932253163
 30
0.0
  0
VERTEX
  5
38C
330
378
100
AcDbEntity
  8
Visible (ANSI)
100
AcDbVertex
100
AcDb2dVertex
 10
1.023937525077128
 20
2.861503133981189
 30
0.0
  0
VERTEX
  5
38D
330
378
100
AcDbEntity
  8
Visible (ANSI)
100
AcDbVertex
100
AcDb2dVertex
 10
1.022531935833959
 20
2.861353080610715
 30
0.0
  0
VERTEX
  5
38E
330
378
100
AcDbEntity
  8
Visible (ANSI)
100
AcDbVertex
100
AcDb2dVertex
 10
1.021164465892247
 20
2.861107021363513
 30
0.0
  0
VERTEX
  5
38F
330
378
100
AcDbEntity
  8
Visible (ANSI)
100
AcDbVertex
100
AcDb2dVertex
 10
1.019838226083675
 20
2.860765406619144
 30
0.0
  0
VERTEX
  5
390
330
378
100
AcDbEntity
  8
Visible (ANSI)
100
AcDbVertex
100
AcDb2dVertex
 10
1.018556290966268
 20
2.860328957627275
 30
0.0
  0
VERTEX
  5
391
330
378
100
AcDbEntity
  8
Visible (ANSI)
100
AcDbVertex
100
AcDb2dVertex
 10
1.017321562570885
 20
2.859798594715842
 30
0.0
  0
VERTEX
  5
392
330
378
100
AcDbEntity
  8
Visible (ANSI)
100
AcDbVertex
100
AcDb2dVertex
 10
1.016136872894621
 20
2.859175497742452
 30
0.0
  0
SEQEND
  5
37B
330
378
100
AcDbEntity
  8
Visible (ANSI)
  0
POLYLINE
  5
393
330
37
100
AcDbEntity
  8
Visible (ANSI)
100
AcDb2dPolyline
 66
     1
 10
0.0
 20
0.0
 30
0.0
 70
   128
  0
VERTEX
  5
394
330
393
100
AcDbEntity
  8
Visible (ANSI)
100
AcDbVertex
100
AcDb2dVertex
 10
1.038018067726423
 20
2.842435074008398
 30
0.0
  0
VERTEX
  5
395
330
393
100
AcDbEntity
  8
Visible (ANSI)
100
AcDbVertex
100
AcDb2dVertex
 10
1.036558618335501
 20
2.84373680135408
 30
0.0
  0
VERTEX
  5
397
330
393
100
AcDbEntity
  8
Visible (ANSI)
100
AcDbVertex
100
AcDb2dVertex
 10
1.03507690738005
 20
2.844974854643035
 30
0.0
  0
VERTEX
  5
398
330
393
100
AcDbEntity
  8
Visible (ANSI)
100
AcDbVertex
100
AcDb2dVertex
 10
1.033576157505599
 20
2.84614622508152
 30
0.0
  0
VERTEX
  5
399
330
393
100
AcDbEntity
  8
Visible (ANSI)
100
AcDbVertex
100
AcDb2dVertex
 10
1.032059616004961
 20
2.847248044562951
 30
0.0
  0
VERTEX
  5
39A
330
393
100
AcDbEntity
  8
Visible (ANSI)
100
AcDbVertex
100
AcDb2dVertex
 10
1.030530620498595
 20
2.848277642632909
 30
0.0
  0
VERTEX
  5
39B
330
393
100
AcDbEntity
  8
Visible (ANSI)
100
AcDbVertex
100
AcDb2dVertex
 10
1.028992485352356
 20
2.849232482768718
 30
0.0
  0
VERTEX
  5
39C
330
393
100
AcDbEntity
  8
Visible (ANSI)
100
AcDbVertex
100
AcDb2dVertex
 10
1.027448562258272
 20
2.850110211717136
 30
0.0
  0
VERTEX
  5
39D
330
393
100
AcDbEntity
  8
Visible (ANSI)
100
AcDbVertex
100
AcDb2dVertex
 10
1.025902218818251
 20
2.850908659945707
 30
0.0
  0
VERTEX
  5
39E
330
393
100
AcDbEntity
  8
Visible (ANSI)
100
AcDbVertex
100
AcDb2dVertex
 10
1.024356825392092
 20
2.851625839643041
 30
0.0
  0
VERTEX
  5
39F
330
393
100
AcDbEntity
  8
Visible (ANSI)
100
AcDbVertex
100
AcDb2dVertex
 10
1.02281575415109
 20
2.852259950807161
 30
0.0
  0
VERTEX
  5
3A0
330
393
100
AcDbEntity
  8
Visible (ANSI)
100
AcDbVertex
100
AcDb2dVertex
 10
1.021282362072159
 20
2.85280938829147
 30
0.0
  0
VERTEX
  5
3A1
330
393
100
AcDbEntity
  8
Visible (ANSI)
100
AcDbVertex
100
AcDb2dVertex
 10
1.019759992645252
 20
2.853272742630926
 30
0.0
  0
VERTEX
  5
3A2
330
393
100
AcDbEntity
  8
Visible (ANSI)
100
AcDbVertex
100
AcDb2dVertex
 10
1.018251961059488
 20
2.853648807421291
 30
0.0
  0
VERTEX
  5
3A3
330
393
100
AcDbEntity
  8
Visible (ANSI)
100
AcDbVertex
100
AcDb2dVertex
 10
1.016761548849986
 20
2.853936579638339
 30
0.0
  0
VERTEX
  5
3A4
330
393
100
AcDbEntity
  8
Visible (ANSI)
100
AcDbVertex
100
AcDb2dVertex
 10
1.015291999975692
 20
2.854135253375816
 30
0.0
  0
VERTEX
  5
3A5
330
393
100
AcDbEntity
  8
Visible (ANSI)
100
AcDbVertex
100
AcDb2dVertex
 10
1.013846491672547
 20
2.854244233285584
 30
0.0
  0
VERTEX
  5
3A6
330
393
100
AcDbEntity
  8
Visible (ANSI)
100
AcDbVertex
100
AcDb2dVertex
 10
1.012428191229168
 20
2.854263149342691
 30
0.0
  0
VERTEX
  5
3A7
330
393
100
AcDbEntity
  8
Visible (ANSI)
100
AcDbVertex
100
AcDb2dVertex
 10
1.011040157994937
 20
2.854191823398875
 30
0.0
  0
VERTEX
  5
3A8
330
393
100
AcDbEntity
  8
Visible (ANSI)
100
AcDbVertex
100
AcDb2dVertex
 10
1.009685397479097
 20
2.85403028410724
 30
0.0
  0
VERTEX
  5
3A9
330
393
100
AcDbEntity
  8
Visible (ANSI)
100
AcDbVertex
100
AcDb2dVertex
 10
1.008366831372986
 20
2.853778785051874
 30
0.0
  0
VERTEX
  5
3AA
330
393
100
AcDbEntity
  8
Visible (ANSI)
100
AcDbVertex
100
AcDb2dVertex
 10
1.007087304474018
 20
2.853437774639395
 30
0.0
  0
VERTEX
  5
3AB
330
393
100
AcDbEntity
  8
Visible (ANSI)
100
AcDbVertex
100
AcDb2dVertex
 10
1.005849567148068
 20
2.853007920344376
 30
0.0
  0
VERTEX
  5
3AC
330
393
100
AcDbEntity
  8
Visible (ANSI)
100
AcDbVertex
100
AcDb2dVertex
 10
1.004656275238415
 20
2.85249008829906
 30
0.0
  0
VERTEX
  5
3AD
330
393
100
AcDbEntity
  8
Visible (ANSI)
100
AcDbVertex
100
AcDb2dVertex
 10
1.00350997575921
 20
2.851885355282295
 30
0.0
  0
SEQEND
  5
396
330
393
100
AcDbEntity
  8
Visible (ANSI)
  0
POLYLINE
  5
3AE
330
37
100
AcDbEntity
  8
Visible (ANSI)
100
AcDb2dPolyline
 66
     1
 10
0.0
 20
0.0
 30
0.0
 70
   128
  0
VERTEX
  5
3AF
330
3AE
100
AcDbEntity
  8
Visible (ANSI)
100
AcDbVertex
100
AcDb2dVertex
 10
1.022029237262549
 20
2.838021372370265
 30
0.0
  0
VERTEX
  5
3B0
330
3AE
100
AcDbEntity
  8
Visible (ANSI)
100
AcDbVertex
100
AcDb2dVertex
 10
1.02066753698061
 20
2.839066911787123
 30
0.0
  0
VERTEX
  5
3B2
330
3AE
100
AcDbEntity
  8
Visible (ANSI)
100
AcDbVertex
100
AcDb2dVertex
 10
1.019293404124777
 20
2.840055070948403
 30
0.0
  0
VERTEX
  5
3B3
330
3AE
100
AcDbEntity
  8
Visible (ANSI)
100
AcDbVertex
100
AcDb2dVertex
 10
1.017909306407302
 20
2.840983881429022
 30
0.0
  0
VERTEX
  5
3B4
330
3AE
100
AcDbEntity
  8
Visible (ANSI)
100
AcDbVertex
100
AcDb2dVertex
 10
1.016517713699513
 20
2.841851476856054
 30
0.0
  0
VERTEX
  5
3B5
330
3AE
100
AcDbEntity
  8
Visible (ANSI)
100
AcDbVertex
100
AcDb2dVertex
 10
1.015121127110746
 20
2.842656118809806
 30
0.0
  0
VERTEX
  5
3B6
330
3AE
100
AcDbEntity
  8
Visible (ANSI)
100
AcDbVertex
100
AcDb2dVertex
 10
1.013722006523946
 20
2.843396157010604
 30
0.0
  0
VERTEX
  5
3B7
330
3AE
100
AcDbEntity
  8
Visible (ANSI)
100
AcDbVertex
100
AcDb2dVertex
 10
1.012322866532174
 20
2.844070093047441
 30
0.0
  0
VERTEX
  5
3B8
330
3AE
100
AcDbEntity
  8
Visible (ANSI)
100
AcDbVertex
100
AcDb2dVertex
 10
1.010926222804983
 20
2.844676560683315
 30
0.0
  0
VERTEX
  5
3B9
330
3AE
100
AcDbEntity
  8
Visible (ANSI)
100
AcDbVertex
100
AcDb2dVertex
 10
1.009534536656307
 20
2.845214284924094
 30
0.0
  0
VERTEX
  5
3BA
330
3AE
100
AcDbEntity
  8
Visible (ANSI)
100
AcDbVertex
100
AcDb2dVertex
 10
1.008150307865347
 20
2.845682156604807
 30
0.0
  0
VERTEX
  5
3BB
330
3AE
100
AcDbEntity
  8
Visible (ANSI)
100
AcDbVertex
100
AcDb2dVertex
 10
1.006776005350555
 20
2.846079186821363
 30
0.0
  0
VERTEX
  5
3BC
330
3AE
100
AcDbEntity
  8
Visible (ANSI)
100
AcDbVertex
100
AcDb2dVertex
 10
1.005414099156067
 20
2.846404529874291
 30
0.0
  0
VERTEX
  5
3BD
330
3AE
100
AcDbEntity
  8
Visible (ANSI)
100
AcDbVertex
100
AcDb2dVertex
 10
1.004066981479596
 20
2.84665745776339
 30
0.0
  0
VERTEX
  5
3BE
330
3AE
100
AcDbEntity
  8
Visible (ANSI)
100
AcDbVertex
100
AcDb2dVertex
 10
1.002737070986669
 20
2.846837392329242
 30
0.0
  0
VERTEX
  5
3BF
330
3AE
100
AcDbEntity
  8
Visible (ANSI)
100
AcDbVertex
100
AcDb2dVertex
 10
1.001426746877091
 20
2.846943910883646
 30
0.0
  0
VERTEX
  5
3C0
330
3AE
100
AcDbEntity
  8
Visible (ANSI)
100
AcDbVertex
100
AcDb2dVertex
 10
1.000138309213117
 20
2.846976691810886
 30
0.0
  0
VERTEX
  5
3C1
330
3AE
100
AcDbEntity
  8
Visible (ANSI)
100
AcDbVertex
100
AcDb2dVertex
 10
0.9988740622340783
 20
2.846935586008918
 30
0.0
  0
VERTEX
  5
3C2
330
3AE
100
AcDbEntity
  8
Visible (ANSI)
100
AcDbVertex
100
AcDb2dVertex
 10
0.9976362438303041
 20
2.846820575104599
 30
0.0
  0
VERTEX
  5
3C3
330
3AE
100
AcDbEntity
  8
Visible (ANSI)
100
AcDbVertex
100
AcDb2dVertex
 10
0.9964270621444548
 20
2.846631792266273
 30
0.0
  0
VERTEX
  5
3C4
330
3AE
100
AcDbEntity
  8
Visible (ANSI)
100
AcDbVertex
100
AcDb2dVertex
 10
0.9952486227379871
 20
2.846369481484581
 30
0.0
  0
VERTEX
  5
3C5
330
3AE
100
AcDbEntity
  8
Visible (ANSI)
100
AcDbVertex
100
AcDb2dVertex
 10
0.9941030197517754
 20
2.846034054625985
 30
0.0
  0
VERTEX
  5
3C6
330
3AE
100
AcDbEntity
  8
Visible (ANSI)
100
AcDbVertex
100
AcDb2dVertex
 10
0.992992284188044
 20
2.845626064663978
 30
0.0
  0
VERTEX
  5
3C7
330
3AE
100
AcDbEntity
  8
Visible (ANSI)
100
AcDbVertex
100
AcDb2dVertex
 10
0.9919183342233125
 20
2.845146170437297
 30
0.0
  0
VERTEX
  5
3C8
330
3AE
100
AcDbEntity
  8
Visible (ANSI)
100
AcDbVertex
100
AcDb2dVertex
 10
0.9908830620305508
 20
2.844595203242021
 30
0.0
  0
SEQEND
  5
3B1
330
3AE
100
AcDbEntity
  8
Visible (ANSI)
  0
POLYLINE
  5
3C9
330
37
100
AcDbEntity
  8
Visible (ANSI)
100
AcDb2dPolyline
 66
     1
 10
0.0
 20
0.0
 30
0.0
 70
   128
  0
VERTEX
  5
3CA
330
3C9
100
AcDbEntity
  8
Visible (ANSI)
100
AcDbVertex
100
AcDb2dVertex
 10
1.002126082659782
 20
2.835567097456423
 30
0.0
  0
VERTEX
  5
3CB
330
3C9
100
AcDbEntity
  8
Visible (ANSI)
100
AcDbVertex
100
AcDb2dVertex
 10
1.001033621530283
 20
2.836137006707321
 30
0.0
  0
VERTEX
  5
3CD
330
3C9
100
AcDbEntity
  8
Visible (ANSI)
100
AcDbVertex
100
AcDb2dVertex
 10
0.9999412163214095
 20
2.83666658879052
 30
0.0
  0
VERTEX
  5
3CE
330
3C9
100
AcDbEntity
  8
Visible (ANSI)
100
AcDbVertex
100
AcDb2dVertex
 10
0.998850090364087
 20
2.837155200770988
 30
0.0
  0
VERTEX
  5
3CF
330
3C9
100
AcDbEntity
  8
Visible (ANSI)
100
AcDbVertex
100
AcDb2dVertex
 10
0.9977613608277483
 20
2.837602189954022
 30
0.0
  0
VERTEX
  5
3D0
330
3C9
100
AcDbEntity
  8
Visible (ANSI)
100
AcDbVertex
100
AcDb2dVertex
 10
0.9966762490529641
 20
2.838007012817916
 30
0.0
  0
VERTEX
  5
3D1
330
3C9
100
AcDbEntity
  8
Visible (ANSI)
100
AcDbVertex
100
AcDb2dVertex
 10
0.9955959683017846
 20
2.838369169938085
 30
0.0
  0
VERTEX
  5
3D2
330
3C9
100
AcDbEntity
  8
Visible (ANSI)
100
AcDbVertex
100
AcDb2dVertex
 10
0.9945216261821119
 20
2.838688156739956
 30
0.0
  0
VERTEX
  5
3D3
330
3C9
100
AcDbEntity
  8
Visible (ANSI)
100
AcDbVertex
100
AcDb2dVertex
 10
0.9934544237666685
 20
2.838963578460365
 30
0.0
  0
VERTEX
  5
3D4
330
3C9
100
AcDbEntity
  8
Visible (ANSI)
100
AcDbVertex
100
AcDb2dVertex
 10
0.992395553818749
 20
2.839195087230993
 30
0.0
  0
VERTEX
  5
3D5
330
3C9
100
AcDbEntity
  8
Visible (ANSI)
100
AcDbVertex
100
AcDb2dVertex
 10
0.9913461034474998
 20
2.839382330033543
 30
0.0
  0
VERTEX
  5
3D6
330
3C9
100
AcDbEntity
  8
Visible (ANSI)
100
AcDbVertex
100
AcDb2dVertex
 10
0.9903072410440607
 20
2.83952506067562
 30
0.0
  0
VERTEX
  5
3D7
330
3C9
100
AcDbEntity
  8
Visible (ANSI)
100
AcDbVertex
100
AcDb2dVertex
 10
0.9892801267356752
 20
2.839623090064827
 30
0.0
  0
VERTEX
  5
3D8
330
3C9
100
AcDbEntity
  8
Visible (ANSI)
100
AcDbVertex
100
AcDb2dVertex
 10
0.9882658101040949
 20
2.839676218682526
 30
0.0
  0
VERTEX
  5
3D9
330
3C9
100
AcDbEntity
  8
Visible (ANSI)
100
AcDbVertex
100
AcDb2dVertex
 10
0.9872654200747405
 20
2.83968435580754
 30
0.0
  0
VERTEX
  5
3DA
330
3C9
100
AcDbEntity
  8
Visible (ANSI)
100
AcDbVertex
100
AcDb2dVertex
 10
0.9862800736633941
 20
2.83964746896407
 30
0.0
  0
VERTEX
  5
3DB
330
3C9
100
AcDbEntity
  8
Visible (ANSI)
100
AcDbVertex
100
AcDb2dVertex
 10
0.9853107673722837
 20
2.839565517700437
 30
0.0
  0
VERTEX
  5
3DC
330
3C9
100
AcDbEntity
  8
Visible (ANSI)
100
AcDbVertex
100
AcDb2dVertex
 10
0.9843585828622797
 20
2.839438564447756
 30
0.0
  0
VERTEX
  5
3DD
330
3C9
100
AcDbEntity
  8
Visible (ANSI)
100
AcDbVertex
100
AcDb2dVertex
 10
0.9834245779782269
 20
2.839266734304439
 30
0.0
  0
VERTEX
  5
3DE
330
3C9
100
AcDbEntity
  8
Visible (ANSI)
100
AcDbVertex
100
AcDb2dVertex
 10
0.9825096916206126
 20
2.839050141515484
 30
0.0
  0
VERTEX
  5
3DF
330
3C9
100
AcDbEntity
  8
Visible (ANSI)
100
AcDbVertex
100
AcDb2dVertex
 10
0.981614939726141
 20
2.838789010188931
 30
0.0
  0
VERTEX
  5
3E0
330
3C9
100
AcDbEntity
  8
Visible (ANSI)
100
AcDbVertex
100
AcDb2dVertex
 10
0.9807413160773757
 20
2.838483617721145
 30
0.0
  0
VERTEX
  5
3E1
330
3C9
100
AcDbEntity
  8
Visible (ANSI)
100
AcDbVertex
100
AcDb2dVertex
 10
0.9798896885901667
 20
2.838134233851813
 30
0.0
  0
VERTEX
  5
3E2
330
3C9
100
AcDbEntity
  8
Visible (ANSI)
100
AcDbVertex
100
AcDb2dVertex
 10
0.9790609995400018
 20
2.837741238343269
 30
0.0
  0
VERTEX
  5
3E3
330
3C9
100
AcDbEntity
  8
Visible (ANSI)
100
AcDbVertex
100
AcDb2dVertex
 10
0.9782561648951391
 20
2.837305060781864
 30
0.0
  0
SEQEND
  5
3CC
330
3C9
100
AcDbEntity
  8
Visible (ANSI)
  0
LINE
  5
3E4
330
37
100
AcDbEntity
  8
Visible (ANSI)
100
AcDbLine
 10
1.167659760347446
 20
2.94665727839839
 30
0.0
 11
1.162789571059356
 21
2.943845473301908
 31
0.0
  0
LINE
  5
3E5
330
37
100
AcDbEntity
  8
Visible (ANSI)
100
AcDbLine
 10
1.155032853540541
 20
2.939367130354393
 30
0.0
 11
1.150162664252451
 21
2.936555325257911
 31
0.0
  0
LINE
  5
3E6
330
37
100
AcDbEntity
  8
Visible (ANSI)
100
AcDbLine
 10
1.142405946733637
 20
2.932076982310397
 30
0.0
 11
1.137535757445547
 21
2.929265177213915
 31
0.0
  0
LINE
  5
3E7
330
37
100
AcDbEntity
  8
Visible (ANSI)
100
AcDbLine
 10
1.129779039926732
 20
2.9247868342664
 30
0.0
 11
1.124908850638643
 21
2.921975029169918
 31
0.0
  0
LINE
  5
3E8
330
37
100
AcDbEntity
  8
Visible (ANSI)
100
AcDbLine
 10
1.117152133119828
 20
2.917496686222404
 30
0.0
 11
1.115381101135944
 21
2.916474180429766
 31
0.0
  0
LINE
  5
3E9
330
37
100
AcDbEntity
  8
Visible (ANSI)
100
AcDbLine
 10
1.039420995122455
 20
2.872618592775218
 30
0.0
 11
1.036520502990311
 21
2.870943992861943
 31
0.0
  0
LINE
  5
3EA
330
37
100
AcDbEntity
  8
Visible (ANSI)
100
AcDbLine
 10
1.028763785471497
 20
2.866465649914429
 30
0.0
 11
1.023893596183407
 21
2.863653844817947
 31
0.0
  0
LINE
  5
3EB
330
37
100
AcDbEntity
  8
Visible (ANSI)
100
AcDbLine
 10
1.016136878664592
 20
2.859175501870432
 30
0.0
 11
1.011266689376502
 21
2.85636369677395
 31
0.0
  0
LINE
  5
3EC
330
37
100
AcDbEntity
  8
Visible (ANSI)
100
AcDbLine
 10
1.003509971857688
 20
2.851885353826436
 30
0.0
 11
0.9986397825695984
 21
2.849073548729954
 31
0.0
  0
LINE
  5
3ED
330
37
100
AcDbEntity
  8
Visible (ANSI)
100
AcDbLine
 10
0.9908830650507837
 20
2.844595205782439
 30
0.0
 11
0.986012875762694
 21
2.841783400685957
 31
0.0
  0
LINE
  5
3EE
330
37
100
AcDbEntity
  8
Visible (ANSI)
100
AcDbLine
 10
0.9782561582438793
 20
2.837305057738443
 30
0.0
 11
0.977040536053037
 21
2.836603217939328
 31
0.0
  0
INSERT
  5
42E
330
37
100
AcDbEntity
  8
0
100
AcDbBlockReference
  2
Parts List
 10
0.0
 20
0.0
 30
0.0
 41
0.5
 42
0.5
 43
0.5
  0
MTEXT
  5
42F
102
{ACAD_REACTORS
330
430
102
}
330
37
100
AcDbEntity
  8
Symbol (ANSI)
100
AcDbMText
 10
2.146072808741135
 20
1.947061612746946
 30
0.0
 40
0.0600000007415381
 41
0.2334359827942735
 71
     1
 72
     1
  1
{block1}
  7
Note Text (ANSI)
 73
     1
 44
1.0
1001
ACAD
1000
MTEXTBEGIN
1070
    73
1070
     1
1070
    44
1040
1.0
1070
    74
1070
     0
1000
MTEXTEND
  0
LEADER
  5
430
330
37
100
AcDbEntity
  8
Symbol (ANSI)
100
AcDbLeader
  3
Default (ANSI)$7
 73
     0
 40
0.0639489598232511
 41
0.2213431860800999
 76
     4
 10
1.938825055456744
 20
2.050822984708519
 30
0.0
 10
2.052440158372766
 20
1.937207881792531
 30
0.0
 10
2.096860210315938
 20
1.917061612376177
 30
0.0
 10
2.130324777245072
 20
1.917061612376177
 30
0.0
340
42F
210
0.0
220
0.0
230
-1.0
213
0.0
223
-0.0300000003707691
233
0.0
1001
ACAD
1000
DSTYLE
1002
{
1070
    77
1070
     0
1002
}
  0
MTEXT
  5
431
102
{ACAD_REACTORS
330
432
102
}
330
37
100
AcDbEntity
  8
Symbol (ANSI)
100
AcDbMText
 10
1.077268495788707
 20
1.573855738542517
 30
0.0
 40
0.0600000007415381
 41
0.2334359827942735
 71
     3
 72
     1
  1
{block2}
  7
Note Text (ANSI)
 73
     1
 44
1.0
1001
ACAD
1000
MTEXTBEGIN
1070
    73
1070
     1
1070
    44
1040
1.0
1070
    74
1070
     0
1000
MTEXTEND
  0
LEADER
  5
432
330
37
100
AcDbEntity
  8
Symbol (ANSI)
100
AcDbLeader
  3
Default (ANSI)$7
 73
     0
 40
0.0639489598232511
 41
0.2244056441434692
 76
     4
 10
1.30242895238873
 20
1.683399523291004
 30
0.0
 10
1.137938891374524
 20
1.543855738171748
 30
0.0
 10
1.126481094213904
 20
1.543855738171748
 30
0.0
 10
1.09301652728477
 20
1.543855738171748
 30
0.0
340
431
213
0.0
223
-0.0300000003707691
233
0.0
1001
ACAD
1000
DSTYLE
1002
{
1070
    77
1070
     0
1002
}
  0
MTEXT
  5
433
102
{ACAD_REACTORS
330
434
102
}
330
37
100
AcDbEntity
  8
Symbol (ANSI)
100
AcDbMText
 10
0.5502028299266126
 20
3.064289529946808
 30
0.0
 40
0.0600000007415381
 41
0.2334359827942735
 71
     3
 72
     1
  1
{block3}
  7
Note Text (ANSI)
 73
     1
 44
1.0
1001
ACAD
1000
MTEXTBEGIN
1070
    73
1070
     1
1070
    44
1040
1.0
1070
    74
1070
     0
1000
MTEXTEND
  0
LEADER
  5
434
330
37
100
AcDbEntity
  8
Symbol (ANSI)
100
AcDbLeader
  3
Default (ANSI)$7
 73
     0
 40
0.0639489598232511
 41
0.2233579611217902
 76
     3
 10
0.6660328563917992
 20
2.785669903461479
 30
0.0
 10
0.5994154283518095
 20
3.034289529576039
 30
0.0
 10
0.5659508614226756
 20
3.034289529576039
 30
0.0
340
433
210
0.0
220
0.0
230
-1.0
213
0.0
223
-0.0300000003707691
233
0.0
1001
ACAD
1000
DSTYLE
1002
{
1070
    77
1070
     0
1002
}
  0
MTEXT
  5
435
102
{ACAD_REACTORS
330
436
102
}
330
37
100
AcDbEntity
  8
Symbol (ANSI)
100
AcDbMText
 10
2.136606578191273
 20
2.964238832223724
 30
0.0
 40
0.0600000007415381
 41
0.2334359827942735
 71
     1
 72
     1
  1
{block4}
  7
Note Text (ANSI)
 73
     1
 44
1.0
1001
ACAD
1000
MTEXTBEGIN
1070
    73
1070
     1
1070
    44
1040
1.0
1070
    74
1070
     0
1000
MTEXTEND
  0
LEADER
  5
436
330
37
100
AcDbEntity
  8
Symbol (ANSI)
100
AcDbLeader
  3
Default (ANSI)$7
 73
     0
 40
0.0639489598232511
 41
0.2259771686759877
 76
     3
 10
1.938825055456802
 20
2.785669907543724
 30
0.0
 10
2.087393979766077
 20
2.934238831852955
 30
0.0
 10
2.120858546695211
 20
2.934238831852955
 30
0.0
340
435
213
0.0
223
-0.0300000003707691
233
0.0
1001
ACAD
1000
DSTYLE
1002
{
1070
    77
1070
     0
1002
}
  0
ENDSEC
  0
SECTION
  2
OBJECTS
  0
DICTIONARY
  5
C
330
0
100
AcDbDictionary
281
     1
  3
ACAD_COLOR
350
30
  3
ACAD_GROUP
350
D
  3
ACAD_LAYOUT
350
2F
  3
ACAD_MATERIAL
350
10
  3
ACAD_MLINESTYLE
350
2C
  3
ACAD_PLOTSETTINGS
350
2E
  3
ACAD_PLOTSTYLENAME
350
E
  3
ACAD_TABLESTYLE
350
31
  3
ACAD_VISUALSTYLE
350
14
  3
AcDbVariableDictionary
350
437
  3
DWGPROPS
350
43D
  0
DICTIONARY
  5
30
102
{ACAD_REACTORS
330
C
102
}
330
C
100
AcDbDictionary
281
     1
  0
DICTIONARY
  5
D
102
{ACAD_REACTORS
330
C
102
}
330
C
100
AcDbDictionary
281
     1
  0
DICTIONARY
  5
2F
102
{ACAD_REACTORS
330
C
102
}
330
C
100
AcDbDictionary
281
     1
  3
Layout1
350
36
  3
Layout2
350
3E
  3
Model
350
3A
  0
DICTIONARY
  5
10
102
{ACAD_REACTORS
330
C
102
}
330
C
100
AcDbDictionary
281
     1
  3
ByBlock
350
12
  3
ByLayer
350
11
  3
Global
350
13
  0
DICTIONARY
  5
2C
102
{ACAD_REACTORS
330
C
102
}
330
C
100
AcDbDictionary
281
     1
  3
Standard
350
2D
  0
DICTIONARY
  5
2E
102
{ACAD_REACTORS
330
C
102
}
330
C
100
AcDbDictionary
281
     1
  0
ACDBDICTIONARYWDFLT
  5
E
102
{ACAD_REACTORS
330
C
102
}
330
C
100
AcDbDictionary
281
     1
  3
Normal
350
F
100
AcDbDictionaryWithDefault
340
F
  0
DICTIONARY
  5
31
102
{ACAD_REACTORS
330
C
102
}
330
C
100
AcDbDictionary
281
     1
  3
Standard
350
32
  0
DICTIONARY
  5
14
102
{ACAD_REACTORS
330
C
102
}
330
C
100
AcDbDictionary
281
     1
  3
2dWireframe
350
1A
  3
3D Hidden
350
1C
  3
3dWireframe
350
1B
  3
Basic
350
19
  3
Brighten
350
20
  3
ColorChange
350
24
  3
Conceptual
350
1D
  3
Dim
350
1F
  3
Facepattern
350
23
  3
Flat
350
15
  3
FlatWithEdges
350
16
  3
Gouraud
350
17
  3
GouraudWithEdges
350
18
  3
Linepattern
350
22
  3
Realistic
350
1E
  3
Thicken
350
21
  0
DICTIONARY
  5
437
102
{ACAD_REACTORS
330
C
102
}
330
C
100
AcDbDictionary
281
     1
  3
CTABLESTYLE
350
438
  3
DIMASSOC
350
43C
  3
HIDETEXT
350
43B
  3
INDEXCTL
350
43A
  3
SORTENTS
350
439
  0
XRECORD
  5
43D
102
{ACAD_REACTORS
330
C
102
}
330
C
100
AcDbXrecord
280
     1
  1
DWGPROPS COOKIE
  2
WAVEGUIDE ORTHOMODE TRANSDUCER
  3

  4
Da Chow
  6

  7

  8

  9

300
Manager=
301
Company=RADIO ASTRONOMY LABORATORY                                                UNIVERSITY OF CALIFORNIA-BERKELEY                        601 CAMPBELL HALL BERKELEY,CA 94720
302
Category=
303
Part Number=OMT
304
Description=
305
Project=
306
Designer=Da Chow
307
Engineer=
308
Authority=
309
Cost Center=
 40
0.0000128356481481
 41
2454846.696709525
 42
2454846.696709525
  1

 90
       17
300
Vendor=
300
User Status=
300
Design Status=WorkInProgress
300
Checked by=
300
Date Checked=01/14/2009
300
Engr Approved by=
300
Mfg Approved by=
  0
LAYOUT
  5
36
102
{ACAD_XDICTIONARY
360
446
102
}
102
{ACAD_REACTORS
330
2F
102
}
330
2F
100
AcDbPlotSettings
  1

  2

  4

  6

 40
0.0
 41
0.0
 42
0.0
 43
0.0
 44
0.0
 45
0.0
 46
0.0
 47
0.0
 48
0.0
 49
0.0
140
0.0
141
0.0
142
1.0
143
1.0
 70
   688
 72
     0
 73
     0
 74
     5
  7

 75
    16
147
1.0
148
0.0
149
0.0
100
AcDbLayout
  1
Layout1
 70
     1
 71
     1
 10
0.0
 20
0.0
 11
12.0
 21
9.0
 12
0.0
 22
0.0
 32
0.0
 14
0.0
 24
0.0
 34
0.0
 15
0.0
 25
0.0
 35
0.0
146
0.0
 13
0.0
 23
0.0
 33
0.0
 16
1.0
 26
0.0
 36
0.0
 17
0.0
 27
1.0
 37
0.0
 76
     0
330
33
  0
LAYOUT
  5
3E
102
{ACAD_XDICTIONARY
360
44A
102
}
102
{ACAD_REACTORS
330
2F
102
}
330
2F
100
AcDbPlotSettings
  1

  2

  4

  6

 40
0.0
 41
0.0
 42
0.0
 43
0.0
 44
0.0
 45
0.0
 46
0.0
 47
0.0
 48
0.0
 49
0.0
140
0.0
141
0.0
142
1.0
143
1.0
 70
   688
 72
     0
 73
     0
 74
     5
  7

 75
    16
147
1.0
148
0.0
149
0.0
100
AcDbLayout
  1
Layout2
 70
     1
 71
     2
 10
0.0
 20
0.0
 11
12.0
 21
9.0
 12
0.0
 22
0.0
 32
0.0
 14
0.0
 24
0.0
 34
0.0
 15
0.0
 25
0.0
 35
0.0
146
0.0
 13
0.0
 23
0.0
 33
0.0
 16
1.0
 26
0.0
 36
0.0
 17
0.0
 27
1.0
 37
0.0
 76
     0
330
3B
  0
LAYOUT
  5
3A
102
{ACAD_XDICTIONARY
360
448
102
}
102
{ACAD_REACTORS
330
2F
102
}
330
2F
100
AcDbPlotSettings
  1

  2

  4

  6

 40
0.0
 41
0.0
 42
0.0
 43
0.0
 44
0.0
 45
0.0
 46
0.0
 47
0.0
 48
0.0
 49
0.0
140
0.0
141
0.0
142
1.0
143
1.0
 70
  1712
 72
     0
 73
     0
 74
     0
  7

 75
     0
147
1.0
148
0.0
149
0.0
100
AcDbLayout
  1
Model
 70
     1
 71
     0
 10
0.0
 20
0.0
 11
12.0
 21
9.0
 12
0.0
 22
0.0
 32
0.0
 14
0.0
 24
0.0
 34
0.0
 15
0.0
 25
0.0
 35
0.0
146
0.0
 13
0.0
 23
0.0
 33
0.0
 16
1.0
 26
0.0
 36
0.0
 17
0.0
 27
1.0
 37
0.0
 76
     0
330
37
  0
MATERIAL
  5
12
102
{ACAD_XDICTIONARY
360
440
102
}
102
{ACAD_REACTORS
330
10
102
}
330
10
100
AcDbMaterial
  1
ByBlock
  0
MATERIAL
  5
11
102
{ACAD_XDICTIONARY
360
43E
102
}
102
{ACAD_REACTORS
330
10
102
}
330
10
100
AcDbMaterial
  1
ByLayer
  0
MATERIAL
  5
13
102
{ACAD_XDICTIONARY
360
442
102
}
102
{ACAD_REACTORS
330
10
102
}
330
10
100
AcDbMaterial
  1
Global
  0
MLINESTYLE
  5
2D
102
{ACAD_REACTORS
330
2C
102
}
330
2C
100
AcDbMlineStyle
  2
STANDARD
 70
     0
  3

 62
   256
 51
90.0
 52
90.0
 71
     2
 49
0.5
 62
   256
  6
BYLAYER
 49
-0.5
 62
   256
  6
BYLAYER
  0
ACDBPLACEHOLDER
  5
F
102
{ACAD_REACTORS
330
E
102
}
330
E
  0
TABLESTYLE
  5
32
102
{ACAD_XDICTIONARY
360
444
102
}
102
{ACAD_REACTORS
330
31
102
}
330
31
100
AcDbTableStyle
  3
Standard
 70
     0
 71
     0
 40
0.06
 41
0.06
280
     0
281
     0
  7
Standard
140
0.18
170
     2
 62
     0
 63
     7
283
     0
274
    -2
284
     1
 64
     0
275
    -2
285
     1
 65
     0
276
    -2
286
     1
 66
     0
277
    -2
287
     1
 67
     0
278
    -2
288
     1
 68
     0
279
    -2
289
     1
 69
     0
  7
Standard
140
0.25
170
     5
 62
     0
 63
     7
283
     0
274
    -2
284
     1
 64
     0
275
    -2
285
     1
 65
     0
276
    -2
286
     1
 66
     0
277
    -2
287
     1
 67
     0
278
    -2
288
     1
 68
     0
279
    -2
289
     1
 69
     0
  7
Standard
140
0.18
170
     5
 62
     0
 63
     7
283
     0
274
    -2
284
     1
 64
     0
275
    -2
285
     1
 65
     0
276
    -2
286
     1
 66
     0
277
    -2
287
     1
 67
     0
278
    -2
288
     1
 68
     0
279
    -2
289
     1
 69
     0
  0
VISUALSTYLE
  5
1A
102
{ACAD_REACTORS
330
14
102
}
330
14
100
AcDbVisualStyle
  2
2dWireframe
 70
     4
 71
     0
 72
     2
 73
     0
 90
        0
 40
-0.6
 41
-30.0
 62
     5
 63
     7
 74
     1
 91
        4
 64
     7
 65
   257
 75
     1
175
     1
 42
1.0
 92
        0
 66
   257
 43
1.0
 76
     1
 77
     6
 78
     2
 67
     7
 79
     5
170
     0
171
     0
290
     0
174
     0
 93
        1
 44
0.0
173
     0
291
     0
 45
0.0
1001
ACAD
1000
AcDbSavedByObjectVersion
1070
     0
  0
VISUALSTYLE
  5
1C
102
{ACAD_REACTORS
330
14
102
}
330
14
100
AcDbVisualStyle
  2
3D Hidden
 70
     6
 71
     1
 72
     2
 73
     2
 90
        0
 40
-0.6
 41
-30.0
 62
     5
 63
     7
 74
     2
 91
        2
 64
     7
 65
   257
 75
     2
175
     1
 42
40.0
 92
        0
 66
   257
 43
1.0
 76
     1
 77
     6
 78
     2
 67
     7
 79
     3
170
     0
171
     0
290
     0
174
     0
 93
        1
 44
0.0
173
     0
291
     0
 45
0.0
1001
ACAD
1000
AcDbSavedByObjectVersion
1070
     0
  0
VISUALSTYLE
  5
1B
102
{ACAD_REACTORS
330
14
102
}
330
14
100
AcDbVisualStyle
  2
3dWireframe
 70
     5
 71
     0
 72
     2
 73
     0
 90
        0
 40
-0.6
 41
-30.0
 62
     5
 63
     7
 74
     1
 91
        4
 64
     7
 65
   257
 75
     1
175
     1
 42
1.0
 92
        0
 66
   257
 43
1.0
 76
     1
 77
     6
 78
     2
 67
     7
 79
     5
170
     0
171
     0
290
     0
174
     0
 93
        1
 44
0.0
173
     0
291
     0
 45
0.0
1001
ACAD
1000
AcDbSavedByObjectVersion
1070
     0
  0
VISUALSTYLE
  5
19
102
{ACAD_REACTORS
330
14
102
}
330
14
100
AcDbVisualStyle
  2
Basic
 70
     7
 71
     1
 72
     0
 73
     1
 90
        0
 40
-0.6
 41
-30.0
 62
     5
 63
     7
 74
     0
 91
        4
 64
     7
 65
   257
 75
     1
175
     1
 42
1.0
 92
        8
 66
     7
 43
1.0
 76
     1
 77
     6
 78
     2
 67
     7
 79
     5
170
     0
171
     0
290
     0
174
     0
 93
        1
 44
0.0
173
     0
291
     1
 45
0.0
1001
ACAD
1000
AcDbSavedByObjectVersion
1070
     0
  0
VISUALSTYLE
  5
20
102
{ACAD_REACTORS
330
14
102
}
330
14
100
AcDbVisualStyle
  2
Brighten
 70
    12
 71
     2
 72
     2
 73
     0
 90
        0
 40
-0.6
 41
-30.0
 62
     5
 63
     7
 74
     1
 91
        4
 64
     7
 65
   257
 75
     1
175
     1
 42
1.0
 92
        8
 66
     7
 43
1.0
 76
     1
 77
     6
 78
     2
 67
     7
 79
     5
170
     0
171
     0
290
     0
174
     0
 93
        1
 44
50.0
173
     0
291
     1
 45
0.0
1001
ACAD
1000
AcDbSavedByObjectVersion
1070
     0
  0
VISUALSTYLE
  5
24
102
{ACAD_REACTORS
330
14
102
}
330
14
100
AcDbVisualStyle
  2
ColorChange
 70
    16
 71
     2
 72
     2
 73
     3
 90
        0
 40
-0.6
 41
-30.0
 62
     5
 63
     8
 74
     1
 91
        4
 64
     7
 65
   257
 75
     1
175
     1
 42
1.0
 92
        8
 66
     8
 43
1.0
 76
     1
 77
     6
 78
     2
 67
     7
 79
     5
170
     0
171
     0
290
     0
174
     0
 93
        1
 44
0.0
173
     0
291
     1
 45
0.0
1001
ACAD
1000
AcDbSavedByObjectVersion
1070
     0
  0
VISUALSTYLE
  5
1D
102
{ACAD_REACTORS
330
14
102
}
330
14
100
AcDbVisualStyle
  2
Conceptual
 70
     9
 71
     3
 72
     2
 73
     0
 90
        0
 40
-0.6
 41
-30.0
 62
     5
 63
     7
 74
     2
 91
        2
 64
     7
 65
   257
 75
     1
175
     1
 42
40.0
 92
        8
 66
     7
 43
1.0
 76
     1
 77
     6
 78
     2
 67
     7
 79
     3
170
     0
171
     0
290
     0
174
     0
 93
        1
 44
0.0
173
     0
291
     0
 45
0.0
1001
ACAD
1000
AcDbSavedByObjectVersion
1070
     0
  0
VISUALSTYLE
  5
1F
102
{ACAD_REACTORS
330
14
102
}
330
14
100
AcDbVisualStyle
  2
Dim
 70
    11
 71
     2
 72
     2
 73
     0
 90
        0
 40
-0.6
 41
-30.0
 62
     5
 63
     7
 74
     1
 91
        4
 64
     7
 65
   257
 75
     1
175
     1
 42
1.0
 92
        8
 66
     7
 43
1.0
 76
     1
 77
     6
 78
     2
 67
     7
 79
     5
170
     0
171
     0
290
     0
174
     0
 93
        1
 44
-50.0
173
     0
291
     1
 45
0.0
1001
ACAD
1000
AcDbSavedByObjectVersion
1070
     0
  0
VISUALSTYLE
  5
23
102
{ACAD_REACTORS
330
14
102
}
330
14
100
AcDbVisualStyle
  2
Facepattern
 70
    15
 71
     2
 72
     2
 73
     0
 90
        0
 40
-0.6
 41
-30.0
 62
     5
 63
     7
 74
     1
 91
        4
 64
     7
 65
   257
 75
     1
175
     1
 42
1.0
 92
        8
 66
     7
 43
1.0
 76
     1
 77
     6
 78
     2
 67
     7
 79
     5
170
     0
171
     0
290
     0
174
     0
 93
        1
 44
0.0
173
     0
291
     1
 45
0.0
1001
ACAD
1000
AcDbSavedByObjectVersion
1070
     0
  0
VISUALSTYLE
  5
15
102
{ACAD_REACTORS
330
14
102
}
330
14
100
AcDbVisualStyle
  2
Flat
 70
     0
 71
     2
 72
     1
 73
     1
 90
        2
 40
-0.6
 41
30.0
 62
     5
 63
     7
 74
     0
 91
        4
 64
     7
 65
   257
 75
     1
175
     1
 42
1.0
 92
        8
 66
     7
 43
1.0
 76
     1
 77
     6
 78
     2
 67
     7
 79
     5
170
     0
171
     0
290
     0
174
     0
 93
       13
 44
0.0
173
     0
291
     1
 45
0.0
1001
ACAD
1000
AcDbSavedByObjectVersion
1070
     0
  0
VISUALSTYLE
  5
16
102
{ACAD_REACTORS
330
14
102
}
330
14
100
AcDbVisualStyle
  2
FlatWithEdges
 70
     1
 71
     2
 72
     1
 73
     1
 90
        2
 40
-0.6
 41
30.0
 62
     5
 63
     7
 74
     1
 91
        4
 64
     7
 65
   257
 75
     1
175
     1
 42
1.0
 92
        0
 66
   257
 43
1.0
 76
     1
 77
     6
 78
     2
 67
     7
 79
     5
170
     0
171
     0
290
     0
174
     0
 93
       13
 44
0.0
173
     0
291
     1
 45
0.0
1001
ACAD
1000
AcDbSavedByObjectVersion
1070
     0
  0
VISUALSTYLE
  5
17
102
{ACAD_REACTORS
330
14
102
}
330
14
100
AcDbVisualStyle
  2
Gouraud
 70
     2
 71
     2
 72
     2
 73
     1
 90
        2
 40
-0.6
 41
30.0
 62
     5
 63
     7
 74
     0
 91
        4
 64
     7
 65
   257
 75
     1
175
     1
 42
1.0
 92
        0
 66
     7
 43
1.0
 76
     1
 77
     6
 78
     2
 67
     7
 79
     5
170
     0
171
     0
290
     0
174
     0
 93
       13
 44
0.0
173
     0
291
     1
 45
0.0
1001
ACAD
1000
AcDbSavedByObjectVersion
1070
     0
  0
VISUALSTYLE
  5
18
102
{ACAD_REACTORS
330
14
102
}
330
14
100
AcDbVisualStyle
  2
GouraudWithEdges
 70
     3
 71
     2
 72
     2
 73
     1
 90
        2
 40
-0.6
 41
30.0
 62
     5
 63
     7
 74
     1
 91
        4
 64
     7
 65
   257
 75
     1
175
     1
 42
1.0
 92
        0
 66
   257
 43
1.0
 76
     1
 77
     6
 78
     2
 67
     7
 79
     5
170
     0
171
     0
290
     0
174
     0
 93
       13
 44
0.0
173
     0
291
     1
 45
0.0
1001
ACAD
1000
AcDbSavedByObjectVersion
1070
     0
  0
VISUALSTYLE
  5
22
102
{ACAD_REACTORS
330
14
102
}
330
14
100
AcDbVisualStyle
  2
Linepattern
 70
    14
 71
     2
 72
     2
 73
     0
 90
        0
 40
-0.6
 41
-30.0
 62
     5
 63
     7
 74
     1
 91
        4
 64
     7
 65
   257
 75
     7
175
     7
 42
1.0
 92
        8
 66
     7
 43
1.0
 76
     1
 77
     6
 78
     2
 67
     7
 79
     5
170
     0
171
     0
290
     0
174
     0
 93
        1
 44
0.0
173
     0
291
     1
 45
0.0
1001
ACAD
1000
AcDbSavedByObjectVersion
1070
     0
  0
VISUALSTYLE
  5
1E
102
{ACAD_REACTORS
330
14
102
}
330
14
100
AcDbVisualStyle
  2
Realistic
 70
     8
 71
     2
 72
     2
 73
     0
 90
        0
 40
-0.6
 41
-30.0
 62
     5
 63
     7
 74
     1
 91
        0
 64
     7
 65
   257
 75
     1
175
     1
 42
1.0
 92
        8
 66
     8
 43
1.0
 76
     1
 77
     6
 78
     2
 67
     7
 79
     5
170
     0
171
     0
290
     0
174
     0
 93
       13
 44
0.0
173
     0
291
     0
 45
0.0
1001
ACAD
1000
AcDbSavedByObjectVersion
1070
     0
  0
VISUALSTYLE
  5
21
102
{ACAD_REACTORS
330
14
102
}
330
14
100
AcDbVisualStyle
  2
Thicken
 70
    13
 71
     2
 72
     2
 73
     0
 90
        0
 40
-0.6
 41
-30.0
 62
     5
 63
     7
 74
     1
 91
        4
 64
     7
 65
   257
 75
     1
175
     1
 42
1.0
 92
       12
 66
     7
 43
1.0
 76
     1
 77
     6
 78
     2
 67
     7
 79
     5
170
     0
171
     0
290
     0
174
     0
 93
        1
 44
0.0
173
     0
291
     1
 45
0.0
1001
ACAD
1000
AcDbSavedByObjectVersion
1070
     0
  0
DICTIONARYVAR
  5
438
102
{ACAD_REACTORS
330
437
102
}
330
437
100
DictionaryVariables
280
     0
  1
STANDARD
  0
DICTIONARYVAR
  5
43C
102
{ACAD_REACTORS
330
437
102
}
330
437
100
DictionaryVariables
280
     0
  1
1
  0
DICTIONARYVAR
  5
43B
102
{ACAD_REACTORS
330
437
102
}
330
437
100
DictionaryVariables
280
     0
  1
1
  0
DICTIONARYVAR
  5
43A
102
{ACAD_REACTORS
330
437
102
}
330
437
100
DictionaryVariables
280
     0
  1
0
  0
DICTIONARYVAR
  5
439
102
{ACAD_REACTORS
330
437
102
}
330
437
100
DictionaryVariables
280
     0
  1
127
  0
DICTIONARY
  5
446
330
36
100
AcDbDictionary
280
     1
281
     1
  3
ACAD_XREC_ROUNDTRIP
360
447
  0
DICTIONARY
  5
44A
330
3E
100
AcDbDictionary
280
     1
281
     1
  3
ACAD_XREC_ROUNDTRIP
360
44B
  0
DICTIONARY
  5
448
330
3A
100
AcDbDictionary
280
     1
281
     1
  3
ACAD_XREC_ROUNDTRIP
360
449
  0
DICTIONARY
  5
440
330
12
100
AcDbDictionary
280
     1
281
     1
  3
ACAD_XREC_ROUNDTRIP
360
441
  0
DICTIONARY
  5
43E
330
11
100
AcDbDictionary
280
     1
281
     1
  3
ACAD_XREC_ROUNDTRIP
360
43F
  0
DICTIONARY
  5
442
330
13
100
AcDbDictionary
280
     1
281
     1
  3
ACAD_XREC_ROUNDTRIP
360
443
  0
DICTIONARY
  5
444
330
32
100
AcDbDictionary
280
     1
281
     1
  3
ACAD_XREC_ROUNDTRIP
360
445
  0
XRECORD
  5
447
102
{ACAD_REACTORS
330
446
102
}
330
446
100
AcDbXrecord
280
     1
102
SHADEPLOT
 70
     0
102
SHADEPLOTRESLEVEL
 70
     2
102
SHADEPLOTCUSTOMDPI
 70
   300
  0
XRECORD
  5
44B
102
{ACAD_REACTORS
330
44A
102
}
330
44A
100
AcDbXrecord
280
     1
102
SHADEPLOT
 70
     0
102
SHADEPLOTRESLEVEL
 70
     2
102
SHADEPLOTCUSTOMDPI
 70
   300
  0
XRECORD
  5
449
102
{ACAD_REACTORS
330
448
102
}
330
448
100
AcDbXrecord
280
     1
102
SHADEPLOT
 70
     0
102
SHADEPLOTRESLEVEL
 70
     2
102
SHADEPLOTCUSTOMDPI
 70
   300
  0
XRECORD
  5
441
102
{ACAD_REACTORS
330
440
102
}
330
440
100
AcDbXrecord
280
     1
102
MATERIAL
148
0.0
149
0.0
149
0.0
 93
        0
 94
       63
282
     0
 72
     1
 77
     1
171
     1
175
     1
179
     1
273
     0
  0
XRECORD
  5
43F
102
{ACAD_REACTORS
330
43E
102
}
330
43E
100
AcDbXrecord
280
     1
102
MATERIAL
148
0.0
149
0.0
149
0.0
 93
        0
 94
       63
282
     0
 72
     1
 77
     1
171
     1
175
     1
179
     1
273
     0
  0
XRECORD
  5
443
102
{ACAD_REACTORS
330
442
102
}
330
442
100
AcDbXrecord
280
     1
102
MATERIAL
148
0.0
149
0.0
149
0.0
 93
        0
 94
       63
282
     0
 72
     1
 77
     1
171
     1
175
     1
179
     1
273
     0
  0
XRECORD
  5
445
102
{ACAD_REACTORS
330
444
102
}
330
444
100
AcDbXrecord
280
     1
102
ACAD_ROUNDTRIP_PRE2007_TABLESTYLE
 90
      512
 91
        0
  1

 92
      512
 93
        0
  2

 94
      512
 95
        0
  3

  0
ENDSEC
  0
EOF
