  0
SECTION
  2
HEADER
  9
$ACADVER
  1
AC1015
  9
$ACADMAINTVER
 70
    18
  9
$DWGCODEPAGE
  3
ANSI_1252
  9
$INSBASE
 10
0.0
 20
0.0
 30
0.0
  9
$EXTMIN
 10
0.0
 20
0.0
 30
0.0
  9
$EXTMAX
 10
2.2
 20
1.7
 30
0.0
  9
$LIMMIN
 10
0.0
 20
0.0
  9
$LIMMAX
 10
2.2
 20
1.7
  9
$ORTHOMODE
 70
     0
  9
$REGENMODE
 70
     1
  9
$FILLMODE
 70
     1
  9
$QTEXTMODE
 70
     0
  9
$MIRRTEXT
 70
     0
  9
$LTSCALE
 40
0.2
  9
$ATTMODE
 70
     1
  9
$TEXTSIZE
 40
0.2
  9
$TRACEWID
 40
0.05
  9
$TEXTSTYLE
  7
Standard
  9
$CLAYER
  8
0
  9
$CELTYPE
  6
ByLayer
  9
$CECOLOR
 62
   256
  9
$CELTSCALE
 40
1.0
  9
$DISPSILH
 70
     0
  9
$DIMSCALE
 40
1.0
  9
$DIMASZ
 40
0.0708661417322835
  9
$DIMEXO
 40
0.0625
  9
$DIMDLI
 40
0.38
  9
$DIMRND
 40
0.0
  9
$DIMDLE
 40
0.0
  9
$DIMEXE
 40
0.18
  9
$DIMTP
 40
0.0
  9
$DIMTM
 40
0.0
  9
$DIMTXT
 40
0.3048000037670135
  9
$DIMCEN
 40
0.09
  9
$DIMTSZ
 40
0.0
  9
$DIMTOL
 70
     0
  9
$DIMLIM
 70
     0
  9
$DIMTIH
 70
     1
  9
$DIMTOH
 70
     1
  9
$DIMSE1
 70
     0
  9
$DIMSE2
 70
     0
  9
$DIMTAD
 70
     0
  9
$DIMZIN
 70
     0
  9
$DIMBLK
  1

  9
$DIMASO
 70
     1
  9
$DIMSHO
 70
     1
  9
$DIMPOST
  1

  9
$DIMAPOST
  1

  9
$DIMALT
 70
     0
  9
$DIMALTD
 70
     2
  9
$DIMALTF
 40
25.4
  9
$DIMLFAC
 40
1.0
  9
$DIMTOFL
 70
     0
  9
$DIMTVP
 40
0.0
  9
$DIMTIX
 70
     0
  9
$DIMSOXD
 70
     0
  9
$DIMSAH
 70
     0
  9
$DIMBLK1
  1

  9
$DIMBLK2
  1

  9
$DIMSTYLE
  2
Standard
  9
$DIMCLRD
 70
     0
  9
$DIMCLRE
 70
     0
  9
$DIMCLRT
 70
     0
  9
$DIMTFAC
 40
1.0
  9
$DIMGAP
 40
0.09
  9
$DIMJUST
 70
     0
  9
$DIMSD1
 70
     0
  9
$DIMSD2
 70
     0
  9
$DIMTOLJ
 70
     1
  9
$DIMTZIN
 70
     0
  9
$DIMALTZ
 70
     0
  9
$DIMALTTZ
 70
     0
  9
$DIMUPT
 70
     0
  9
$DIMDEC
 70
     4
  9
$DIMTDEC
 70
     4
  9
$DIMALTU
 70
     2
  9
$DIMALTTD
 70
     2
  9
$DIMTXSTY
  7
Standard
  9
$DIMAUNIT
 70
     0
  9
$DIMADEC
 70
     0
  9
$DIMALTRND
 40
0.0
  9
$DIMAZIN
 70
     0
  9
$DIMDSEP
 70
    46
  9
$DIMATFIT
 70
     3
  9
$DIMFRAC
 70
     0
  9
$DIMLDRBLK
  1

  9
$DIMLUNIT
 70
     2
  9
$DIMLWD
 70
    -2
  9
$DIMLWE
 70
    -2
  9
$DIMTMOVE
 70
     0
  9
$LUNITS
 70
     2
  9
$LUPREC
 70
     4
  9
$SKETCHINC
 40
0.1
  9
$FILLETRAD
 40
0.0
  9
$AUNITS
 70
     0
  9
$AUPREC
 70
     0
  9
$MENU
  1
.
  9
$ELEVATION
 40
0.0
  9
$PELEVATION
 40
0.0
  9
$THICKNESS
 40
0.0
  9
$LIMCHECK
 70
     0
  9
$CHAMFERA
 40
0.0
  9
$CHAMFERB
 40
0.0
  9
$CHAMFERC
 40
0.0
  9
$CHAMFERD
 40
0.0
  9
$SKPOLY
 70
     0
  9
$TDCREATE
 40
2454846.696810799
  9
$TDUCREATE
 40
2454847.030144132
  9
$TDUPDATE
 40
2454846.696810799
  9
$TDUUPDATE
 40
2454847.030144132
  9
$TDINDWG
 40
0.0000300116
  9
$TDUSRTIMER
 40
0.0000300116
  9
$USRTIMER
 70
     1
  9
$ANGBASE
 50
0.0
  9
$ANGDIR
 70
     0
  9
$PDMODE
 70
     0
  9
$PDSIZE
 40
0.0
  9
$PLINEWID
 40
0.0
  9
$SPLFRAME
 70
     0
  9
$SPLINETYPE
 70
     6
  9
$SPLINESEGS
 70
     8
  9
$HANDSEED
  5
212
  9
$SURFTAB1
 70
     6
  9
$SURFTAB2
 70
     6
  9
$SURFTYPE
 70
     6
  9
$SURFU
 70
     6
  9
$SURFV
 70
     6
  9
$UCSBASE
  2

  9
$UCSNAME
  2

  9
$UCSORG
 10
0.0
 20
0.0
 30
0.0
  9
$UCSXDIR
 10
1.0
 20
0.0
 30
0.0
  9
$UCSYDIR
 10
0.0
 20
1.0
 30
0.0
  9
$UCSORTHOREF
  2

  9
$UCSORTHOVIEW
 70
     0
  9
$UCSORGTOP
 10
0.0
 20
0.0
 30
0.0
  9
$UCSORGBOTTOM
 10
0.0
 20
0.0
 30
0.0
  9
$UCSORGLEFT
 10
0.0
 20
0.0
 30
0.0
  9
$UCSORGRIGHT
 10
0.0
 20
0.0
 30
0.0
  9
$UCSORGFRONT
 10
0.0
 20
0.0
 30
0.0
  9
$UCSORGBACK
 10
0.0
 20
0.0
 30
0.0
  9
$PUCSBASE
  2

  9
$PUCSNAME
  2

  9
$PUCSORG
 10
0.0
 20
0.0
 30
0.0
  9
$PUCSXDIR
 10
1.0
 20
0.0
 30
0.0
  9
$PUCSYDIR
 10
0.0
 20
1.0
 30
0.0
  9
$PUCSORTHOREF
  2

  9
$PUCSORTHOVIEW
 70
     0
  9
$PUCSORGTOP
 10
0.0
 20
0.0
 30
0.0
  9
$PUCSORGBOTTOM
 10
0.0
 20
0.0
 30
0.0
  9
$PUCSORGLEFT
 10
0.0
 20
0.0
 30
0.0
  9
$PUCSORGRIGHT
 10
0.0
 20
0.0
 30
0.0
  9
$PUCSORGFRONT
 10
0.0
 20
0.0
 30
0.0
  9
$PUCSORGBACK
 10
0.0
 20
0.0
 30
0.0
  9
$USERI1
 70
     0
  9
$USERI2
 70
     0
  9
$USERI3
 70
     0
  9
$USERI4
 70
     0
  9
$USERI5
 70
     0
  9
$USERR1
 40
0.0
  9
$USERR2
 40
0.0
  9
$USERR3
 40
0.0
  9
$USERR4
 40
0.0
  9
$USERR5
 40
0.0
  9
$WORLDVIEW
 70
     1
  9
$SHADEDGE
 70
     3
  9
$SHADEDIF
 70
    70
  9
$TILEMODE
 70
     1
  9
$MAXACTVP
 70
    64
  9
$PINSBASE
 10
0.0
 20
0.0
 30
0.0
  9
$PLIMCHECK
 70
     0
  9
$PEXTMIN
 10
0.0
 20
0.0
 30
0.0
  9
$PEXTMAX
 10
2.2
 20
1.7
 30
0.0
  9
$PLIMMIN
 10
0.0
 20
0.0
  9
$PLIMMAX
 10
2.2
 20
1.7
  9
$UNITMODE
 70
     0
  9
$VISRETAIN
 70
     1
  9
$PLINEGEN
 70
     0
  9
$PSLTSCALE
 70
     1
  9
$TREEDEPTH
 70
  3020
  9
$CMLSTYLE
  2
Standard
  9
$CMLJUST
 70
     0
  9
$CMLSCALE
 40
1.0
  9
$PROXYGRAPHICS
 70
     1
  9
$MEASUREMENT
 70
     0
  9
$CELWEIGHT
370
    -1
  9
$ENDCAPS
280
     0
  9
$JOINSTYLE
280
     0
  9
$LWDISPLAY
290
     0
  9
$INSUNITS
 70
     0
  9
$HYPERLINKBASE
  1

  9
$STYLESHEET
  1

  9
$XEDIT
290
     1
  9
$CEPSNTYPE
380
     0
  9
$PSTYLEMODE
290
     1
  9
$FINGERPRINTGUID
  2
{5FA37958-4175-49EE-A1B8-EACE1D6A63F1}
  9
$VERSIONGUID
  2
{A6406165-1650-41E4-B896-5D94BCF98031}
  9
$EXTNAMES
290
     1
  9
$PSVPSCALE
 40
0.0
  9
$OLESTARTUP
290
     0
  0
ENDSEC
  0
SECTION
  2
CLASSES
  0
CLASS
  1
ACDBDICTIONARYWDFLT
  2
AcDbDictionaryWithDefault
  3
ObjectDBX Classes
 90
        0
280
     0
281
     0
  0
CLASS
  1
MATERIAL
  2
AcDbMaterial
  3
ObjectDBX Classes
 90
     1024
280
     0
281
     0
  0
CLASS
  1
VISUALSTYLE
  2
AcDbVisualStyle
  3
ObjectDBX Classes
 90
     4095
280
     0
281
     0
  0
CLASS
  1
TABLESTYLE
  2
AcDbTableStyle
  3
ObjectDBX Classes
 90
     4095
280
     0
281
     0
  0
CLASS
  1
DICTIONARYVAR
  2
AcDbDictionaryVar
  3
ObjectDBX Classes
 90
        0
280
     0
281
     0
  0
CLASS
  1
ACDBPLACEHOLDER
  2
AcDbPlaceHolder
  3
ObjectDBX Classes
 90
        0
280
     0
281
     0
  0
CLASS
  1
LAYOUT
  2
AcDbLayout
  3
ObjectDBX Classes
 90
        0
280
     0
281
     0
  0
ENDSEC
  0
SECTION
  2
TABLES
  0
TABLE
  2
VPORT
  5
8
330
0
100
AcDbSymbolTable
 70
     1
  0
VPORT
  5
28
330
8
100
AcDbSymbolTableRecord
100
AcDbViewportTableRecord
  2
*Active
 70
     0
 10
0.0
 20
0.0
 11
1.0
 21
1.0
 12
1.1
 22
0.85
 13
0.0
 23
0.0
 14
1.0
 24
1.0
 15
0.0
 25
0.0
 16
0.0
 26
0.0
 36
1.0
 17
0.0
 27
0.0
 37
0.0
 40
1.7
 41
1.294117647058823
 42
50.0
 43
0.0
 44
0.0
 50
0.0
 51
0.0
 71
     0
 72
   100
 73
     1
 74
     1
 75
     0
 76
     0
 77
     0
 78
     0
281
     0
 65
     1
110
0.0
120
0.0
130
0.0
111
1.0
121
0.0
131
0.0
112
0.0
122
1.0
132
0.0
 79
     0
146
0.0
  0
ENDTAB
  0
TABLE
  2
LTYPE
  5
5
330
0
100
AcDbSymbolTable
 70
    59
  0
LTYPE
  5
29
330
5
100
AcDbSymbolTableRecord
100
AcDbLinetypeTableRecord
  2
ByBlock
 70
     0
  3

 72
    65
 73
     0
 40
0.0
  0
LTYPE
  5
2A
330
5
100
AcDbSymbolTableRecord
100
AcDbLinetypeTableRecord
  2
ByLayer
 70
     0
  3

 72
    65
 73
     0
 40
0.0
  0
LTYPE
  5
2B
330
5
100
AcDbSymbolTableRecord
100
AcDbLinetypeTableRecord
  2
Continuous
 70
     0
  3
Solid line
 72
    65
 73
     0
 40
0.0
  0
LTYPE
  5
40
330
5
100
AcDbSymbolTableRecord
100
AcDbLinetypeTableRecord
  2
BY_STANDARD
 70
     0
  3
By Standard ____________    ____    ____   _
 72
    65
 73
     6
 40
1.240299999999999
 49
0.6614
 74
     0
 49
-0.0827
 74
     0
 49
0.1654
 74
     0
 49
-0.0827
 74
     0
 49
0.1654
 74
     0
 49
-0.0827
 74
     0
  0
LTYPE
  5
41
330
5
100
AcDbSymbolTableRecord
100
AcDbLinetypeTableRecord
  2
CHAIN
 70
     0
  3
Chain ____ _ ____ _ ____ _ ____ _ ____ _ ____
 72
    65
 73
     4
 40
0.7087
 49
0.4724000000000001
 74
     0
 49
-0.0591
 74
     0
 49
0.1181
 74
     0
 49
-0.0591
 74
     0
  0
LTYPE
  5
42
330
5
100
AcDbSymbolTableRecord
100
AcDbLinetypeTableRecord
  2
DASH_DOT
 70
     0
  3
Dash dot __ . __ . __ . __ . __ . __ . __ . __
 72
    65
 73
     4
 40
0.37
 49
0.24
 74
     0
 49
-0.06
 74
     0
 49
0.01
 74
     0
 49
-0.06
 74
     0
  0
LTYPE
  5
43
330
5
100
AcDbSymbolTableRecord
100
AcDbLinetypeTableRecord
  2
DOUBLE_DASH_DOT
 70
     0
  3
Double-Dash Dot __ __ . __ __ . __ __ . __ _
 72
    65
 73
     6
 40
0.4398
 49
0.24
 74
     0
 49
-0.06
 74
     0
 49
0.0098
 74
     0
 49
-0.06
 74
     0
 49
0.01
 74
     0
 49
-0.06
 74
     0
  0
LTYPE
  5
44
330
5
100
AcDbSymbolTableRecord
100
AcDbLinetypeTableRecord
  2
DASH_TRIPLE_DOT
 70
     0
  3
Dash Triple-Dot _ . . . _ . . . _ . . . _
 72
    65
 73
     8
 40
0.51
 49
0.24
 74
     0
 49
-0.06
 74
     0
 49
0.01
 74
     0
 49
-0.06
 74
     0
 49
0.01
 74
     0
 49
-0.06
 74
     0
 49
0.01
 74
     0
 49
-0.06
 74
     0
  0
LTYPE
  5
45
330
5
100
AcDbSymbolTableRecord
100
AcDbLinetypeTableRecord
  2
DASHED
 70
     0
  3
Dashed __ __ __ __ __ __ __ __ __ __ __ __ __ _
 72
    65
 73
     2
 40
0.2067
 49
0.1654
 74
     0
 49
-0.0413
 74
     0
  0
LTYPE
  5
46
330
5
100
AcDbSymbolTableRecord
100
AcDbLinetypeTableRecord
  2
DASH_DOUBLE_DOT
 70
     0
  3
Dash Double-Dot __ . . __ . . __ . . __ . .
 72
    65
 73
     6
 40
0.4398
 49
0.24
 74
     0
 49
-0.06
 74
     0
 49
0.0098
 74
     0
 49
-0.06
 74
     0
 49
0.01
 74
     0
 49
-0.06
 74
     0
  0
LTYPE
  5
47
330
5
100
AcDbSymbolTableRecord
100
AcDbLinetypeTableRecord
  2
DASHED_SPACE
 70
     0
  3
Dashed Space __ __ __ __ __ __ __ __ __ __ __ _
 72
    65
 73
     2
 40
0.2067
 49
0.1654
 74
     0
 49
-0.0413
 74
     0
  0
LTYPE
  5
48
330
5
100
AcDbSymbolTableRecord
100
AcDbLinetypeTableRecord
  2
DOTTED
 70
     0
  3
Dotted . . . . . . . . . . . . . . . . . . . . 
 72
    65
 73
     2
 40
0.0482
 49
0.0069
 74
     0
 49
-0.0413
 74
     0
  0
LTYPE
  5
49
330
5
100
AcDbSymbolTableRecord
100
AcDbLinetypeTableRecord
  2
DOUBLE_DASH_CHAIN
 70
     0
  3
Double-Dash Chain ______  __  __  ______  __  _
 72
    65
 73
     6
 40
1.240299999999999
 49
0.6614
 74
     0
 49
-0.0827
 74
     0
 49
0.1654
 74
     0
 49
-0.0827
 74
     0
 49
0.1654
 74
     0
 49
-0.0827
 74
     0
  0
LTYPE
  5
4B
330
5
100
AcDbSymbolTableRecord
100
AcDbLinetypeTableRecord
  2
DOUBLE_DASH_DOUBLE_DOT
 70
     0
  3
Double-Dash Double-dot _ _ . . _ _ . . _
 72
    65
 73
     8
 40
0.7400000000000001
 49
0.24
 74
     0
 49
-0.06
 74
     0
 49
0.24
 74
     0
 49
-0.06
 74
     0
 49
0.01
 74
     0
 49
-0.06
 74
     0
 49
0.01
 74
     0
 49
-0.06
 74
     0
  0
LTYPE
  5
4C
330
5
100
AcDbSymbolTableRecord
100
AcDbLinetypeTableRecord
  2
DOUBLE_DASH_TRIPLE_DOT
 70
     0
  3
Double Dash Triple Dot __ __ . . . __ __ . .
 72
    65
 73
    10
 40
0.8100000000000001
 49
0.24
 74
     0
 49
-0.06
 74
     0
 49
0.24
 74
     0
 49
-0.06
 74
     0
 49
0.01
 74
     0
 49
-0.06
 74
     0
 49
0.01
 74
     0
 49
-0.06
 74
     0
 49
0.01
 74
     0
 49
-0.06
 74
     0
  0
LTYPE
  5
4D
330
5
100
AcDbSymbolTableRecord
100
AcDbLinetypeTableRecord
  2
LONG_DASH_DOTTED
 70
     0
  3
Long Dash Dotted ____ . ____ . ____ . ____ . _
 72
    65
 73
     4
 40
0.3543
 49
0.2362
 74
     0
 49
-0.0295
 74
     0
 49
0.0591
 74
     0
 49
-0.0295
 74
     0
  0
LTYPE
  5
4E
330
5
100
AcDbSymbolTableRecord
100
AcDbLinetypeTableRecord
  2
LONG_DASH_DOUBLE_DOT
 70
     0
  3
Long Dash Double Dot ________  .  .  ________  
 72
    65
 73
     6
 40
0.6799999999999999
 49
0.48
 74
     0
 49
-0.06
 74
     0
 49
0.01
 74
     0
 49
-0.06
 74
     0
 49
0.01
 74
     0
 49
-0.06
 74
     0
  0
LTYPE
  5
4F
330
5
100
AcDbSymbolTableRecord
100
AcDbLinetypeTableRecord
  2
LONG_DASH_TRIPLE_DOT
 70
     0
  3
Long Dash Triple Dot ____ ... ____ ... ____
 72
    65
 73
     8
 40
0.3689
 49
0.2362
 74
     0
 49
-0.0295
 74
     0
 49
0.0049
 74
     0
 49
-0.0295
 74
     0
 49
0.0049
 74
     0
 49
-0.0295
 74
     0
 49
0.0049
 74
     0
 49
-0.0295
 74
     0
  0
LTYPE
  5
50
330
5
100
AcDbSymbolTableRecord
100
AcDbLinetypeTableRecord
  2
BORDER
 70
     0
  3
Border __ __ . __ __ . __ __ . __ __ . __ __ .
 72
    65
 73
     6
 40
1.75
 49
0.5
 74
     0
 49
-0.25
 74
     0
 49
0.5
 74
     0
 49
-0.25
 74
     0
 49
0.0
 74
     0
 49
-0.25
 74
     0
  0
LTYPE
  5
51
330
5
100
AcDbSymbolTableRecord
100
AcDbLinetypeTableRecord
  2
BORDER2
 70
     0
  3
Border (.5x) __.__.__.__.__.__.__.__.__.__.__.
 72
    65
 73
     6
 40
0.875
 49
0.25
 74
     0
 49
-0.125
 74
     0
 49
0.25
 74
     0
 49
-0.125
 74
     0
 49
0.0
 74
     0
 49
-0.125
 74
     0
  0
LTYPE
  5
52
330
5
100
AcDbSymbolTableRecord
100
AcDbLinetypeTableRecord
  2
BORDERX2
 70
     0
  3
Border (2x) ____  ____  .  ____  ____  .  ___
 72
    65
 73
     6
 40
3.5
 49
1.0
 74
     0
 49
-0.5
 74
     0
 49
1.0
 74
     0
 49
-0.5
 74
     0
 49
0.0
 74
     0
 49
-0.5
 74
     0
  0
LTYPE
  5
53
330
5
100
AcDbSymbolTableRecord
100
AcDbLinetypeTableRecord
  2
CENTER
 70
     0
  3
Center ____ _ ____ _ ____ _ ____ _ ____ _ ____
 72
    65
 73
     4
 40
2.0
 49
1.25
 74
     0
 49
-0.25
 74
     0
 49
0.25
 74
     0
 49
-0.25
 74
     0
  0
LTYPE
  5
54
330
5
100
AcDbSymbolTableRecord
100
AcDbLinetypeTableRecord
  2
CENTER2
 70
     0
  3
Center (.5x) ___ _ ___ _ ___ _ ___ _ ___ _ ___
 72
    65
 73
     4
 40
1.125
 49
0.75
 74
     0
 49
-0.125
 74
     0
 49
0.125
 74
     0
 49
-0.125
 74
     0
  0
LTYPE
  5
55
330
5
100
AcDbSymbolTableRecord
100
AcDbLinetypeTableRecord
  2
CENTERX2
 70
     0
  3
Center (2x) ________  __  ________  __  _____
 72
    65
 73
     4
 40
4.0
 49
2.5
 74
     0
 49
-0.5
 74
     0
 49
0.5
 74
     0
 49
-0.5
 74
     0
  0
LTYPE
  5
56
330
5
100
AcDbSymbolTableRecord
100
AcDbLinetypeTableRecord
  2
DASHDOT2
 70
     0
  3
Dash dot (.5x) _._._._._._._._._._._._._._._.
 72
    65
 73
     4
 40
0.5
 49
0.25
 74
     0
 49
-0.125
 74
     0
 49
0.0
 74
     0
 49
-0.125
 74
     0
  0
LTYPE
  5
57
330
5
100
AcDbSymbolTableRecord
100
AcDbLinetypeTableRecord
  2
DASHDOTX2
 70
     0
  3
Dash dot (2x) ____  .  ____  .  ____  .  ___
 72
    65
 73
     4
 40
2.0
 49
1.0
 74
     0
 49
-0.5
 74
     0
 49
0.0
 74
     0
 49
-0.5
 74
     0
  0
LTYPE
  5
59
330
5
100
AcDbSymbolTableRecord
100
AcDbLinetypeTableRecord
  2
DASHED2
 70
     0
  3
Dashed (.5x) _ _ _ _ _ _ _ _ _ _ _ _ _ _ _ _ _
 72
    65
 73
     2
 40
0.375
 49
0.25
 74
     0
 49
-0.125
 74
     0
  0
LTYPE
  5
5A
330
5
100
AcDbSymbolTableRecord
100
AcDbLinetypeTableRecord
  2
DASHEDX2
 70
     0
  3
Dashed (2x) ____  ____  ____  ____  ____  ___
 72
    65
 73
     2
 40
1.5
 49
1.0
 74
     0
 49
-0.5
 74
     0
  0
LTYPE
  5
5B
330
5
100
AcDbSymbolTableRecord
100
AcDbLinetypeTableRecord
  2
DIVIDE
 70
     0
  3
Divide ____ . . ____ . . ____ . . ____ . . ____
 72
    65
 73
     6
 40
1.25
 49
0.5
 74
     0
 49
-0.25
 74
     0
 49
0.0
 74
     0
 49
-0.25
 74
     0
 49
0.0
 74
     0
 49
-0.25
 74
     0
  0
LTYPE
  5
5C
330
5
100
AcDbSymbolTableRecord
100
AcDbLinetypeTableRecord
  2
DIVIDE2
 70
     0
  3
Divide (.5x) __..__..__..__..__..__..__..__.._
 72
    65
 73
     6
 40
0.625
 49
0.25
 74
     0
 49
-0.125
 74
     0
 49
0.0
 74
     0
 49
-0.125
 74
     0
 49
0.0
 74
     0
 49
-0.125
 74
     0
  0
LTYPE
  5
5D
330
5
100
AcDbSymbolTableRecord
100
AcDbLinetypeTableRecord
  2
DIVIDEX2
 70
     0
  3
Divide (2x) ________  .  .  ________  .  .  _
 72
    65
 73
     6
 40
2.5
 49
1.0
 74
     0
 49
-0.5
 74
     0
 49
0.0
 74
     0
 49
-0.5
 74
     0
 49
0.0
 74
     0
 49
-0.5
 74
     0
  0
LTYPE
  5
5E
330
5
100
AcDbSymbolTableRecord
100
AcDbLinetypeTableRecord
  2
DOT
 70
     0
  3
Dot . . . . . . . . . . . . . . . . . . . . . .
 72
    65
 73
     2
 40
0.25
 49
0.0
 74
     0
 49
-0.25
 74
     0
  0
LTYPE
  5
5F
330
5
100
AcDbSymbolTableRecord
100
AcDbLinetypeTableRecord
  2
DOT2
 70
     0
  3
Dot (.5x) .....................................
 72
    65
 73
     2
 40
0.125
 49
0.0
 74
     0
 49
-0.125
 74
     0
  0
LTYPE
  5
60
330
5
100
AcDbSymbolTableRecord
100
AcDbLinetypeTableRecord
  2
DOTX2
 70
     0
  3
Dot (2x) .  .  .  .  .  .  .  .  .  .  .  .  . 
 72
    65
 73
     2
 40
0.5
 49
0.0
 74
     0
 49
-0.5
 74
     0
  0
LTYPE
  5
61
330
5
100
AcDbSymbolTableRecord
100
AcDbLinetypeTableRecord
  2
HIDDEN
 70
     0
  3
Hidden __ __ __ __ __ __ __ __ __ __ __ __ __ _
 72
    65
 73
     2
 40
0.375
 49
0.25
 74
     0
 49
-0.125
 74
     0
  0
LTYPE
  5
62
330
5
100
AcDbSymbolTableRecord
100
AcDbLinetypeTableRecord
  2
HIDDEN2
 70
     0
  3
Hidden (.5x) _ _ _ _ _ _ _ _ _ _ _ _ _ _ _ _ _
 72
    65
 73
     2
 40
0.1875
 49
0.125
 74
     0
 49
-0.0625
 74
     0
  0
LTYPE
  5
63
330
5
100
AcDbSymbolTableRecord
100
AcDbLinetypeTableRecord
  2
HIDDENX2
 70
     0
  3
Hidden (2x) ____ ____ ____ ____ ____ ____ ____
 72
    65
 73
     2
 40
0.75
 49
0.5
 74
     0
 49
-0.25
 74
     0
  0
LTYPE
  5
64
330
5
100
AcDbSymbolTableRecord
100
AcDbLinetypeTableRecord
  2
PHANTOM
 70
     0
  3
Phantom ______  __  __  ______  __  __  ______
 72
    65
 73
     6
 40
2.5
 49
1.25
 74
     0
 49
-0.25
 74
     0
 49
0.25
 74
     0
 49
-0.25
 74
     0
 49
0.25
 74
     0
 49
-0.25
 74
     0
  0
LTYPE
  5
65
330
5
100
AcDbSymbolTableRecord
100
AcDbLinetypeTableRecord
  2
PHANTOM2
 70
     0
  3
Phantom (.5x) ___ _ _ ___ _ _ ___ _ _ ___ _ _
 72
    65
 73
     6
 40
1.25
 49
0.625
 74
     0
 49
-0.125
 74
     0
 49
0.125
 74
     0
 49
-0.125
 74
     0
 49
0.125
 74
     0
 49
-0.125
 74
     0
  0
LTYPE
  5
66
330
5
100
AcDbSymbolTableRecord
100
AcDbLinetypeTableRecord
  2
PHANTOMX2
 70
     0
  3
Phantom (2x) ____________    ____    ____   _
 72
    65
 73
     6
 40
5.0
 49
2.5
 74
     0
 49
-0.5
 74
     0
 49
0.5
 74
     0
 49
-0.5
 74
     0
 49
0.5
 74
     0
 49
-0.5
 74
     0
  0
LTYPE
  5
67
330
5
100
AcDbSymbolTableRecord
100
AcDbLinetypeTableRecord
  2
ACAD_ISO02W100
 70
     0
  3
ISO dash __ __ __ __ __ __ __ __ __ __ __ __ __
 72
    65
 73
     2
 40
0.59
 49
0.47
 74
     0
 49
-0.12
 74
     0
  0
LTYPE
  5
68
330
5
100
AcDbSymbolTableRecord
100
AcDbLinetypeTableRecord
  2
ACAD_ISO03W100
 70
     0
  3
ISO dash space __    __    __    __    __    __
 72
    65
 73
     2
 40
1.179999999999999
 49
0.47
 74
     0
 49
-0.71
 74
     0
  0
LTYPE
  5
69
330
5
100
AcDbSymbolTableRecord
100
AcDbLinetypeTableRecord
  2
ACAD_ISO04W100
 70
     0
  3
ISO long-dash dot ____ . ____ . ____ . ____ . _
 72
    65
 73
     4
 40
1.179999999999999
 49
0.9399999999999998
 74
     0
 49
-0.12
 74
     0
 49
0.0
 74
     0
 49
-0.12
 74
     0
  0
LTYPE
  5
6A
330
5
100
AcDbSymbolTableRecord
100
AcDbLinetypeTableRecord
  2
ACAD_ISO05W100
 70
     0
  3
ISO long-dash double-dot ____ .. ____ .. ____ .
 72
    65
 73
     6
 40
1.299999999999999
 49
0.9399999999999998
 74
     0
 49
-0.12
 74
     0
 49
0.0
 74
     0
 49
-0.12
 74
     0
 49
0.0
 74
     0
 49
-0.12
 74
     0
  0
LTYPE
  5
6B
330
5
100
AcDbSymbolTableRecord
100
AcDbLinetypeTableRecord
  2
ACAD_ISO06W100
 70
     0
  3
ISO long-dash triple-dot ____ ... ____ ... ____
 72
    65
 73
     8
 40
1.419999999999999
 49
0.9399999999999998
 74
     0
 49
-0.12
 74
     0
 49
0.0
 74
     0
 49
-0.12
 74
     0
 49
0.0
 74
     0
 49
-0.12
 74
     0
 49
0.0
 74
     0
 49
-0.12
 74
     0
  0
LTYPE
  5
6C
330
5
100
AcDbSymbolTableRecord
100
AcDbLinetypeTableRecord
  2
ACAD_ISO07W100
 70
     0
  3
ISO dot . . . . . . . . . . . . . . . . . . . .
 72
    65
 73
     2
 40
0.12
 49
0.0
 74
     0
 49
-0.12
 74
     0
  0
LTYPE
  5
6D
330
5
100
AcDbSymbolTableRecord
100
AcDbLinetypeTableRecord
  2
ACAD_ISO08W100
 70
     0
  3
ISO long-dash short-dash ____ __ ____ __ ____ _
 72
    65
 73
     4
 40
0.95
 49
0.47
 74
     0
 49
-0.12
 74
     0
 49
0.24
 74
     0
 49
-0.12
 74
     0
  0
LTYPE
  5
6E
330
5
100
AcDbSymbolTableRecord
100
AcDbLinetypeTableRecord
  2
ACAD_ISO09W100
 70
     0
  3
ISO long-dash double-short-dash ____ __ __ ____
 72
    65
 73
     6
 40
1.31
 49
0.47
 74
     0
 49
-0.12
 74
     0
 49
0.24
 74
     0
 49
-0.12
 74
     0
 49
0.24
 74
     0
 49
-0.12
 74
     0
  0
LTYPE
  5
6F
330
5
100
AcDbSymbolTableRecord
100
AcDbLinetypeTableRecord
  2
ACAD_ISO10W100
 70
     0
  3
ISO dash dot __ . __ . __ . __ . __ . __ . __ .
 72
    65
 73
     4
 40
0.71
 49
0.47
 74
     0
 49
-0.12
 74
     0
 49
0.0
 74
     0
 49
-0.12
 74
     0
  0
LTYPE
  5
70
330
5
100
AcDbSymbolTableRecord
100
AcDbLinetypeTableRecord
  2
ACAD_ISO11W100
 70
     0
  3
ISO double-dash dot __ __ . __ __ . __ __ . __ 
 72
    65
 73
     6
 40
1.299999999999999
 49
0.47
 74
     0
 49
-0.12
 74
     0
 49
0.47
 74
     0
 49
-0.12
 74
     0
 49
0.0
 74
     0
 49
-0.12
 74
     0
  0
LTYPE
  5
71
330
5
100
AcDbSymbolTableRecord
100
AcDbLinetypeTableRecord
  2
ACAD_ISO12W100
 70
     0
  3
ISO dash double-dot __ . . __ . . __ . . __ . .
 72
    65
 73
     6
 40
0.8299999999999998
 49
0.47
 74
     0
 49
-0.12
 74
     0
 49
0.0
 74
     0
 49
-0.12
 74
     0
 49
0.0
 74
     0
 49
-0.12
 74
     0
  0
LTYPE
  5
72
330
5
100
AcDbSymbolTableRecord
100
AcDbLinetypeTableRecord
  2
ACAD_ISO13W100
 70
     0
  3
ISO double-dash double-dot __ __ . . __ __ . . 
 72
    65
 73
     8
 40
1.419999999999999
 49
0.47
 74
     0
 49
-0.12
 74
     0
 49
0.47
 74
     0
 49
-0.12
 74
     0
 49
0.0
 74
     0
 49
-0.12
 74
     0
 49
0.0
 74
     0
 49
-0.12
 74
     0
  0
LTYPE
  5
73
330
5
100
AcDbSymbolTableRecord
100
AcDbLinetypeTableRecord
  2
ACAD_ISO14W100
 70
     0
  3
ISO dash triple-dot __ . . . __ . . . __ . . . 
 72
    65
 73
     8
 40
0.95
 49
0.47
 74
     0
 49
-0.12
 74
     0
 49
0.0
 74
     0
 49
-0.12
 74
     0
 49
0.0
 74
     0
 49
-0.12
 74
     0
 49
0.0
 74
     0
 49
-0.12
 74
     0
  0
LTYPE
  5
74
330
5
100
AcDbSymbolTableRecord
100
AcDbLinetypeTableRecord
  2
ACAD_ISO15W100
 70
     0
  3
ISO double-dash triple-dot __ __ . . . __ __ . 
 72
    65
 73
    10
 40
1.539999999999999
 49
0.47
 74
     0
 49
-0.12
 74
     0
 49
0.47
 74
     0
 49
-0.12
 74
     0
 49
0.0
 74
     0
 49
-0.12
 74
     0
 49
0.0
 74
     0
 49
-0.12
 74
     0
 49
0.0
 74
     0
 49
-0.12
 74
     0
  0
LTYPE
  5
77
330
5
100
AcDbSymbolTableRecord
100
AcDbLinetypeTableRecord
  2
FENCELINE1
 70
     0
  3
Fenceline circle ----0-----0----0-----0----0---
 72
    65
 73
     4
 40
1.45
 49
0.25
 74
     0
 49
-0.1
 74
     4
 75
   133
340
76
 46
0.1
 50
0.0
 44
-0.1
 45
0.0
 49
-0.1
 74
     0
 49
1.0
 74
     0
  0
LTYPE
  5
78
330
5
100
AcDbSymbolTableRecord
100
AcDbLinetypeTableRecord
  2
FENCELINE2
 70
     0
  3
Fenceline square ----[]-----[]----[]-----[]----
 72
    65
 73
     4
 40
1.45
 49
0.25
 74
     0
 49
-0.1
 74
     4
 75
   132
340
76
 46
0.1
 50
0.0
 44
-0.1
 45
0.0
 49
-0.1
 74
     0
 49
1.0
 74
     0
  0
LTYPE
  5
79
330
5
100
AcDbSymbolTableRecord
100
AcDbLinetypeTableRecord
  2
TRACKS
 70
     0
  3
Tracks -|-|-|-|-|-|-|-|-|-|-|-|-|-|-|-|-|-|-|-|
 72
    65
 73
     2
 40
0.3
 49
0.15
 74
     4
 75
   130
340
76
 46
0.25
 50
0.0
 44
0.0
 45
0.0
 49
0.15
 74
     0
  0
LTYPE
  5
7A
330
5
100
AcDbSymbolTableRecord
100
AcDbLinetypeTableRecord
  2
BATTING
 70
     0
  3
Batting SSSSSSSSSSSSSSSSSSSSSSSSSSSSSSSSSSSSSSS
 72
    65
 73
     4
 40
0.4001000000000001
 49
0.0001
 74
     0
 49
-0.1
 74
     4
 75
   134
340
76
 46
0.1
 50
0.0
 44
-0.1
 45
0.0
 49
-0.2
 74
     4
 75
   134
340
76
 46
0.1
 50
180.0
 44
0.1
 45
0.0
 49
-0.1
 74
     0
  0
LTYPE
  5
7B
330
5
100
AcDbSymbolTableRecord
100
AcDbLinetypeTableRecord
  2
HOT_WATER_SUPPLY
 70
     0
  3
Hot water supply ---- HW ---- HW ---- HW ----
 72
    65
 73
     3
 40
0.9
 49
0.5
 74
     0
 49
-0.2
 74
     2
 75
     0
340
26
 46
0.1
 50
0.0
 44
-0.1
 45
-0.05
  9
HW
 49
-0.2
 74
     0
  0
LTYPE
  5
7C
330
5
100
AcDbSymbolTableRecord
100
AcDbLinetypeTableRecord
  2
GAS_LINE
 70
     0
  3
Gas line ----GAS----GAS----GAS----GAS----GAS---
 72
    65
 73
     3
 40
0.95
 49
0.5
 74
     0
 49
-0.2
 74
     2
 75
     0
340
26
 46
0.1
 50
0.0
 44
-0.1
 45
-0.05
  9
GAS
 49
-0.25
 74
     0
  0
LTYPE
  5
7D
330
5
100
AcDbSymbolTableRecord
100
AcDbLinetypeTableRecord
  2
ZIGZAG
 70
     0
  3
Zig zag /\/\/\/\/\/\/\/\/\/\/\/\/\/\/\/\/\/\/\/
 72
    65
 73
     4
 40
0.8001000000000001
 49
0.0001
 74
     0
 49
-0.2
 74
     4
 75
   131
340
76
 46
0.2
 50
0.0
 44
-0.2
 45
0.0
 49
-0.4
 74
     4
 75
   131
340
76
 46
0.2
 50
180.0
 44
0.2
 45
0.0
 49
-0.2
 74
     0
  0
ENDTAB
  0
TABLE
  2
LAYER
  5
2
330
0
100
AcDbSymbolTable
 70
    25
  0
LAYER
  5
25
330
2
100
AcDbSymbolTableRecord
100
AcDbLayerTableRecord
  2
0
 70
     0
 62
     7
  6
Continuous
370
    -3
390
F
  0
LAYER
  5
81
330
2
100
AcDbSymbolTableRecord
100
AcDbLayerTableRecord
  2
Border (ANSI)
 70
     0
 62
     7
  6
Continuous
370
    70
390
F
  0
LAYER
  5
82
330
2
100
AcDbSymbolTableRecord
100
AcDbLayerTableRecord
  2
Break Line (ANSI)
 70
     0
 62
     7
  6
Continuous
370
    50
390
F
  0
LAYER
  5
85
330
2
100
AcDbSymbolTableRecord
100
AcDbLayerTableRecord
  2
Detail Boundary (ANSI)
 70
     0
 62
     7
  6
DOUBLE_DASH_CHAIN
370
    50
390
F
  0
LAYER
  5
8E
330
2
100
AcDbSymbolTableRecord
100
AcDbLayerTableRecord
  2
Symbol (ANSI)
 70
     0
 62
     7
  6
Continuous
370
    25
390
F
  0
LAYER
  5
91
330
2
100
AcDbSymbolTableRecord
100
AcDbLayerTableRecord
  2
Visible (ANSI)
 70
     0
 62
     7
  6
Continuous
370
    50
390
F
  0
ENDTAB
  0
TABLE
  2
STYLE
  5
3
330
0
100
AcDbSymbolTable
 70
    12
  0
STYLE
  5
26
330
3
100
AcDbSymbolTableRecord
100
AcDbTextStyleTableRecord
  2
Standard
 70
     0
 40
0.0
 41
1.0
 50
0.0
 71
     0
 42
0.2
  3
TAHOMA.TTF
  4

1001
ACAD
1000
Tahoma
1071
      256
  0
STYLE
  5
76
330
3
100
AcDbSymbolTableRecord
100
AcDbTextStyleTableRecord
  2

 70
     1
 40
0.0
 41
1.0
 50
0.0
 71
     0
 42
0.2
  3
ltypeshp.shx
  4

  0
STYLE
  5
96
330
3
100
AcDbSymbolTableRecord
100
AcDbTextStyleTableRecord
  2
Label Text (ANSI)
 70
     0
 40
0.0
 41
1.0
 50
0.0
 71
     0
 42
0.2
  3
TAHOMA.TTF
  4

1001
ACAD
1000
Tahoma
1071
      256
  0
STYLE
  5
97
330
3
100
AcDbSymbolTableRecord
100
AcDbTextStyleTableRecord
  2
Label Text (DIN)
 70
     0
 40
0.0
 41
1.0
 50
0.0
 71
     0
 42
0.2
  3
isocpeur.ttf
  4

1001
ACAD
1000
ISOCPEUR
1071
      256
  0
STYLE
  5
98
330
3
100
AcDbSymbolTableRecord
100
AcDbTextStyleTableRecord
  2
Label Text (ISO)
 70
     0
 40
0.0
 41
1.0
 50
0.0
 71
     0
 42
0.2
  3
TAHOMA.TTF
  4

1001
ACAD
1000
Tahoma
1071
      256
  0
STYLE
  5
99
330
3
100
AcDbSymbolTableRecord
100
AcDbTextStyleTableRecord
  2
Label Text (JIS)
 70
     0
 40
0.0
 41
1.0
 50
0.0
 71
     0
 42
0.2
  3
TAHOMA.TTF
  4

1001
ACAD
1000
Tahoma
1071
      256
  0
STYLE
  5
9A
330
3
100
AcDbSymbolTableRecord
100
AcDbTextStyleTableRecord
  2
Note Text (ANSI)
 70
     0
 40
0.0
 41
1.0
 50
0.0
 71
     0
 42
0.2
  3
TAHOMA.TTF
  4

1001
ACAD
1000
Tahoma
1071
      256
  0
STYLE
  5
9B
330
3
100
AcDbSymbolTableRecord
100
AcDbTextStyleTableRecord
  2
Note Text (DIN)
 70
     0
 40
0.0
 41
1.0
 50
0.0
 71
     0
 42
0.2
  3
isocpeur.ttf
  4

1001
ACAD
1000
ISOCPEUR
1071
      256
  0
STYLE
  5
9C
330
3
100
AcDbSymbolTableRecord
100
AcDbTextStyleTableRecord
  2
Note Text (ISO)
 70
     0
 40
0.0
 41
1.0
 50
0.0
 71
     0
 42
0.2
  3
TAHOMA.TTF
  4

1001
ACAD
1000
Tahoma
1071
      256
  0
STYLE
  5
9D
330
3
100
AcDbSymbolTableRecord
100
AcDbTextStyleTableRecord
  2
Note Text (JIS)
 70
     0
 40
0.0
 41
1.0
 50
0.0
 71
     0
 42
0.2
  3
TAHOMA.TTF
  4

1001
ACAD
1000
Tahoma
1071
      256
  0
STYLE
  5
F3
330
3
100
AcDbSymbolTableRecord
100
AcDbTextStyleTableRecord
  2
Text Style29
 70
     0
 40
0.0
 41
1.0
 50
0.0
 71
     0
 42
0.2
  3
TAHOMA.TTF
  4

1001
ACAD
1000
Tahoma
1071
      256
  0
STYLE
  5
18B
330
3
100
AcDbSymbolTableRecord
100
AcDbTextStyleTableRecord
  2
Text Style30
 70
     0
 40
0.0
 41
1.0
 50
0.0
 71
     0
 42
0.2
  3
TAHOMA.TTF
  4

1001
ACAD
1000
Tahoma
1071
      256
  0
ENDTAB
  0
TABLE
  2
VIEW
  5
6
330
0
100
AcDbSymbolTable
 70
     0
  0
ENDTAB
  0
TABLE
  2
UCS
  5
7
330
0
100
AcDbSymbolTable
 70
     0
  0
ENDTAB
  0
TABLE
  2
APPID
  5
9
330
0
100
AcDbSymbolTable
 70
     1
  0
APPID
  5
27
330
9
100
AcDbSymbolTableRecord
100
AcDbRegAppTableRecord
  2
ACAD
 70
     0
  0
ENDTAB
  0
TABLE
  2
DIMSTYLE
  5
A
330
0
100
AcDbSymbolTable
 70
    17
100
AcDbDimStyleTable
 71
     0
  0
DIMSTYLE
105
3F
330
A
100
AcDbSymbolTableRecord
100
AcDbDimStyleTableRecord
  2
Standard
 70
     0
340
26
  0
DIMSTYLE
105
9E
330
A
100
AcDbSymbolTableRecord
100
AcDbDimStyleTableRecord
  2
Architectural (ANSI)
 70
     0
 40
0.2
 41
0.0984251946210861
 42
0.0625
 43
0.2362204724409449
 44
0.125
 45
0.00000001
 46
0.3937007874015748
 78
     4
 79
     3
140
0.1200000047683716
144
0.0833333333333333
147
0.031496062992126
171
     1
176
   256
177
   256
178
   256
272
     2
274
     1
276
     2
277
     4
284
    12
286
    12
340
9A
371
    -1
372
    -1
  0
DIMSTYLE
105
9F
330
A
100
AcDbSymbolTableRecord
100
AcDbDimStyleTableRecord
  2
Architectural (ANSI)$7
 70
     0
 40
0.2
 41
0.0984251946210861
 42
0.0625
 43
0.2362204724409449
 44
0.125
 45
0.00000001
 46
0.3937007874015748
 78
     4
 79
     3
140
0.1200000047683716
144
0.0833333333333333
147
0.031496062992126
171
     1
176
   256
177
   256
178
   256
272
     2
274
     1
276
     2
277
     4
284
    12
286
    12
340
9A
371
    -1
372
    -1
  0
DIMSTYLE
105
A0
330
A
100
AcDbSymbolTableRecord
100
AcDbDimStyleTableRecord
  2
Default - Fraction (ANSI)
 70
     0
 40
0.2
 41
0.0984251946210861
 42
0.0625
 43
0.2362204724409449
 44
0.125
 45
0.00000001
 46
0.3937007874015748
 78
    12
 79
     3
140
0.1200000047683716
147
0.031496062992126
171
     1
176
   256
177
   256
178
   256
272
     2
274
     1
276
     2
277
     5
284
    12
286
    12
340
9A
371
    -1
372
    -1
  0
DIMSTYLE
105
A1
330
A
100
AcDbSymbolTableRecord
100
AcDbDimStyleTableRecord
  2
Default - Fraction (ANSI)$7
 70
     0
 40
0.2
 41
0.0984251946210861
 42
0.0625
 43
0.2362204724409449
 44
0.125
 45
0.00000001
 46
0.3937007874015748
 78
    12
 79
     3
140
0.1200000047683716
147
0.031496062992126
171
     1
176
   256
177
   256
178
   256
272
     2
274
     1
276
     2
277
     5
284
    12
286
    12
340
9A
371
    -1
372
    -1
  0
DIMSTYLE
105
A2
330
A
100
AcDbSymbolTableRecord
100
AcDbDimStyleTableRecord
  2
Default - mm (ANSI)
 70
     0
 40
0.2
 41
0.0984251946210861
 42
0.063
 43
0.2362204724409449
 44
0.125
 45
0.00000001
 46
0.3937007874015748
 73
     0
140
0.1200000047683716
143
1.0
144
25.4
147
0.031496062992126
171
     1
176
   256
177
   256
178
   256
179
     1
271
     2
272
     2
274
     1
340
9A
371
    -1
372
    -1
  0
DIMSTYLE
105
A3
330
A
100
AcDbSymbolTableRecord
100
AcDbDimStyleTableRecord
  2
Default - mm (ANSI)$7
 70
     0
 40
0.2
 41
0.0984251946210861
 42
0.063
 43
0.2362204724409449
 44
0.125
 45
0.00000001
 46
0.3937007874015748
 73
     0
140
0.1200000047683716
143
1.0
144
25.4
147
0.031496062992126
171
     1
176
   256
177
   256
178
   256
179
     1
271
     2
272
     2
274
     1
340
9A
371
    -1
372
    -1
  0
DIMSTYLE
105
A4
330
A
100
AcDbSymbolTableRecord
100
AcDbDimStyleTableRecord
  2
Default - mm [in] (ANSI)
 70
     0
  4
 in
 40
0.2
 41
0.0984251946210861
 42
0.063
 43
0.25
 44
0.125
 45
0.00000001
 46
0.3937007874015748
 73
     0
 78
     4
 79
     1
140
0.1200000047683716
143
0.03937
144
25.4
147
0.031496062992126
170
     1
171
     3
176
   256
177
   256
178
   256
179
     1
271
     2
272
     2
274
     3
284
     4
286
     4
340
9A
371
    -1
372
    -1
  0
DIMSTYLE
105
A5
330
A
100
AcDbSymbolTableRecord
100
AcDbDimStyleTableRecord
  2
Default - mm [in] (ANSI)$7
 70
     0
  4
 in
 40
0.2
 41
0.0984251946210861
 42
0.063
 43
0.25
 44
0.125
 45
0.00000001
 46
0.3937007874015748
 73
     0
 78
     4
 79
     1
140
0.1200000047683716
143
0.03937
144
25.4
147
0.031496062992126
170
     1
171
     3
176
   256
177
   256
178
   256
179
     1
271
     2
272
     2
274
     3
284
     4
286
     4
340
9A
371
    -1
372
    -1
  0
DIMSTYLE
105
A6
330
A
100
AcDbSymbolTableRecord
100
AcDbDimStyleTableRecord
  2
Default (ANSI)
 70
     0
 40
0.2
 41
0.0984251946210861
 42
0.0625
 43
0.2362204724409449
 44
0.125
 45
0.00000001
 46
0.3937007874015748
140
0.1200000047683716
147
0.031496062992126
171
     1
176
   256
177
   256
178
   256
271
     3
272
     3
274
     1
340
9A
371
    -1
372
    -1
  0
DIMSTYLE
105
A7
330
A
100
AcDbSymbolTableRecord
100
AcDbDimStyleTableRecord
  2
Default (ANSI)$7
 70
     0
 40
0.2
 41
0.0984251946210861
 42
0.0625
 43
0.2362204724409449
 44
0.125
 45
0.00000001
 46
0.3937007874015748
140
0.1200000047683716
147
0.031496062992126
171
     1
176
   256
177
   256
178
   256
271
     3
272
     3
274
     1
340
9A
371
    -1
372
    -1
  0
DIMSTYLE
105
A8
330
A
100
AcDbSymbolTableRecord
100
AcDbDimStyleTableRecord
  2
Default (ANSI)-01
 70
     0
 40
0.2
 41
0.0984251946210861
 42
0.0625
 43
0.2362204724409449
 44
0.125
 45
0.00000001
 46
0.3937007874015748
140
0.1200000047683716
147
0.031496062992126
171
     1
176
   256
177
   256
178
   256
271
     3
272
     3
274
     1
340
9A
371
    -1
372
    -1
  0
DIMSTYLE
105
A9
330
A
100
AcDbSymbolTableRecord
100
AcDbDimStyleTableRecord
  2
Default (ANSI)-01$7
 70
     0
 40
0.2
 41
0.0984251946210861
 42
0.0625
 43
0.2362204724409449
 44
0.125
 45
0.00000001
 46
0.3937007874015748
140
0.1200000047683716
147
0.031496062992126
171
     1
176
   256
177
   256
178
   256
271
     3
272
     3
274
     1
340
9A
371
    -1
372
    -1
  0
DIMSTYLE
105
B8
330
A
100
AcDbSymbolTableRecord
100
AcDbDimStyleTableRecord
  2
Miscellaneous Object (ANSI)
 70
     0
 40
0.2
 41
0.1968503892421722
 42
0.0625
 43
0.2362204724409449
 44
0.125
 45
0.00000001
 46
0.3937007874015748
140
0.1799999922513962
146
0.666666721856155
147
0.031496062992126
171
     1
176
   256
177
   256
178
   256
271
     2
272
     2
274
     1
340
96
341
AA
371
    -1
372
    -1
  0
DIMSTYLE
105
B9
330
A
100
AcDbSymbolTableRecord
100
AcDbDimStyleTableRecord
  2
Miscellaneous Object (ANSI)$7
 70
     0
 40
0.2
 41
0.1959999948740005
 42
0.0625
 43
0.2362204724409449
 44
0.125
 45
0.00000001
 46
0.3937007874015748
140
0.1799999922513962
146
0.666666721856155
147
0.031496062992126
171
     1
176
   256
177
   256
178
   256
271
     2
272
     2
274
     1
340
96
341
AA
371
    -1
372
    -1
  0
DIMSTYLE
105
BA
330
A
100
AcDbSymbolTableRecord
100
AcDbDimStyleTableRecord
  2
Alternate (ANSI)
 70
     0
 40
0.2
 41
0.0979999974370003
340
26
342
BB
  0
DIMSTYLE
105
CC
330
A
100
AcDbSymbolTableRecord
100
AcDbDimStyleTableRecord
  2
Datum (ANSI)
 70
     0
 40
0.2
 41
0.0979999974370003
340
26
342
BB
  0
ENDTAB
  0
TABLE
  2
BLOCK_RECORD
  5
1
330
0
100
AcDbSymbolTable
 70
     6
  0
BLOCK_RECORD
  5
37
330
1
100
AcDbSymbolTableRecord
100
AcDbBlockTableRecord
  2
*Model_Space
340
3A
  0
BLOCK_RECORD
  5
33
330
1
100
AcDbSymbolTableRecord
100
AcDbBlockTableRecord
  2
*Paper_Space
340
36
  0
BLOCK_RECORD
  5
3B
330
1
100
AcDbSymbolTableRecord
100
AcDbBlockTableRecord
  2
*Paper_Space0
340
3E
  0
BLOCK_RECORD
  5
AA
330
1
100
AcDbSymbolTableRecord
100
AcDbBlockTableRecord
  2
Filled-1
340
0
  0
BLOCK_RECORD
  5
BB
330
1
100
AcDbSymbolTableRecord
100
AcDbBlockTableRecord
  2
_Closed
340
0
  0
BLOCK_RECORD
  5
C2
330
1
100
AcDbSymbolTableRecord
100
AcDbBlockTableRecord
  2
DatumFilled45
340
0
  0
BLOCK_RECORD
  5
CD
330
1
100
AcDbSymbolTableRecord
100
AcDbBlockTableRecord
  2
Borders Default Border
340
0
102
{BLKREFS
331
FE
102
}
  0
BLOCK_RECORD
  5
188
330
1
100
AcDbSymbolTableRecord
100
AcDbBlockTableRecord
  2
2dDetail1
340
0
102
{BLKREFS
331
1A4
102
}
  0
ENDTAB
  0
ENDSEC
  0
SECTION
  2
BLOCKS
  0
BLOCK
  5
38
330
37
100
AcDbEntity
  8
0
100
AcDbBlockBegin
  2
*Model_Space
 70
     0
 10
0.0
 20
0.0
 30
0.0
  3
*Model_Space
  1

  0
ENDBLK
  5
39
330
37
100
AcDbEntity
  8
0
100
AcDbBlockEnd
  0
BLOCK
  5
34
330
33
100
AcDbEntity
 67
     1
  8
0
100
AcDbBlockBegin
  2
*Paper_Space
 70
     0
 10
0.0
 20
0.0
 30
0.0
  3
*Paper_Space
  1

  0
ENDBLK
  5
35
330
33
100
AcDbEntity
 67
     1
  8
0
100
AcDbBlockEnd
  0
BLOCK
  5
3C
330
3B
100
AcDbEntity
 67
     1
  8
0
100
AcDbBlockBegin
  2
*Paper_Space0
 70
     0
 10
0.0
 20
0.0
 30
0.0
  3
*Paper_Space0
  1

  0
ENDBLK
  5
3D
330
3B
100
AcDbEntity
 67
     1
  8
0
100
AcDbBlockEnd
  0
BLOCK
  5
AB
330
AA
100
AcDbEntity
  8
0
100
AcDbBlockBegin
  2
Filled-1
 70
     0
 10
0.0
 20
0.0
 30
0.0
  3
Filled-1
  1

  0
LINE
  5
AD
330
AA
100
AcDbEntity
  8
0
 62
     0
100
AcDbLine
 10
-0.9999999999999998
 20
0.0
 30
0.0
 11
0.0
 21
0.0
 31
0.0
  0
POLYLINE
  5
AE
330
AA
100
AcDbEntity
  8
0
 62
     0
100
AcDb2dPolyline
 66
     1
 10
0.0
 20
0.0
 30
0.0
 70
   128
  0
VERTEX
  5
AF
330
AE
100
AcDbEntity
  8
0
 62
     0
100
AcDbVertex
100
AcDb2dVertex
 10
-0.9999999999999998
 20
-0.0994897959183674
 30
0.0
  0
VERTEX
  5
B0
330
AE
100
AcDbEntity
  8
0
 62
     0
100
AcDbVertex
100
AcDb2dVertex
 10
0.0
 20
0.0
 30
0.0
  0
VERTEX
  5
B2
330
AE
100
AcDbEntity
  8
0
 62
     0
100
AcDbVertex
100
AcDb2dVertex
 10
-0.9999999999999998
 20
0.0994897959183674
 30
0.0
  0
VERTEX
  5
B3
330
AE
100
AcDbEntity
  8
0
 62
     0
100
AcDbVertex
100
AcDb2dVertex
 10
-0.9999999999999998
 20
-0.0994897959183674
 30
0.0
  0
SEQEND
  5
B1
330
AE
100
AcDbEntity
  8
0
 62
     0
  0
SOLID
  5
B4
330
AA
100
AcDbEntity
  8
0
 62
     0
100
AcDbTrace
 10
-0.9999999999999998
 20
-0.0994897959183674
 30
0.0
 11
0.0
 21
0.0
 31
0.0
 12
-0.9999999999999998
 22
0.0994897959183674
 32
0.0
 13
-0.9999999999999998
 23
-0.0994897959183674
 33
0.0
  0
LINE
  5
B5
330
AA
100
AcDbEntity
  8
0
 62
     0
100
AcDbLine
 10
-0.9999999999999998
 20
-0.0994897959183674
 30
0.0
 11
0.0
 21
0.0
 31
0.0
  0
LINE
  5
B6
330
AA
100
AcDbEntity
  8
0
 62
     0
100
AcDbLine
 10
0.0
 20
0.0
 30
0.0
 11
-0.9999999999999998
 21
0.0994897959183674
 31
0.0
  0
LINE
  5
B7
330
AA
100
AcDbEntity
  8
0
 62
     0
100
AcDbLine
 10
-0.9999999999999998
 20
0.0994897959183674
 30
0.0
 11
-0.9999999999999998
 21
-0.0994897959183674
 31
0.0
  0
ENDBLK
  5
AC
330
AA
100
AcDbEntity
  8
0
100
AcDbBlockEnd
  0
BLOCK
  5
C0
330
BB
100
AcDbEntity
  8
0
100
AcDbBlockBegin
  2
_Closed
 70
     0
 10
0.0
 20
0.0
 30
0.0
  3
_Closed
  1

  0
LINE
  5
BC
330
BB
100
AcDbEntity
  8
0
  6
ByBlock
 62
     0
370
    -2
100
AcDbLine
 10
-1.0
 20
0.1666666666666666
 30
0.0
 11
0.0
 21
0.0
 31
0.0
  0
LINE
  5
BD
330
BB
100
AcDbEntity
  8
0
  6
ByBlock
 62
     0
370
    -2
100
AcDbLine
 10
0.0
 20
0.0
 30
0.0
 11
-1.0
 21
-0.1666666666666666
 31
0.0
  0
LINE
  5
BE
330
BB
100
AcDbEntity
  8
0
  6
ByBlock
 62
     0
370
    -2
100
AcDbLine
 10
-1.0
 20
0.1666666666666666
 30
0.0
 11
-1.0
 21
-0.1666666666666666
 31
0.0
  0
LINE
  5
BF
330
BB
100
AcDbEntity
  8
0
  6
ByBlock
 62
     0
370
    -2
100
AcDbLine
 10
0.0
 20
0.0
 30
0.0
 11
-1.0
 21
0.0
 31
0.0
  0
ENDBLK
  5
C1
330
BB
100
AcDbEntity
  8
0
100
AcDbBlockEnd
  0
BLOCK
  5
C3
330
C2
100
AcDbEntity
  8
0
100
AcDbBlockBegin
  2
DatumFilled45
 70
     0
 10
0.0
 20
0.0
 30
0.0
  3
DatumFilled45
  1

  0
POLYLINE
  5
C5
330
C2
100
AcDbEntity
  8
0
 62
     0
100
AcDb2dPolyline
 66
     1
 10
0.0
 20
0.0
 30
0.0
 70
   128
  0
VERTEX
  5
C6
330
C5
100
AcDbEntity
  8
0
 62
     0
100
AcDbVertex
100
AcDb2dVertex
 10
0.0
 20
0.9999999999999998
 30
0.0
  0
VERTEX
  5
C7
330
C5
100
AcDbEntity
  8
0
 62
     0
100
AcDbVertex
100
AcDb2dVertex
 10
0.0
 20
-0.9999999999999998
 30
0.0
  0
VERTEX
  5
C9
330
C5
100
AcDbEntity
  8
0
 62
     0
100
AcDbVertex
100
AcDb2dVertex
 10
-0.9999999999999998
 20
0.0
 30
0.0
  0
VERTEX
  5
CA
330
C5
100
AcDbEntity
  8
0
 62
     0
100
AcDbVertex
100
AcDb2dVertex
 10
0.0
 20
0.9999999999999998
 30
0.0
  0
SEQEND
  5
C8
330
C5
100
AcDbEntity
  8
0
 62
     0
  0
SOLID
  5
CB
330
C2
100
AcDbEntity
  8
0
 62
     0
100
AcDbTrace
 10
0.0
 20
0.9999999999999998
 30
0.0
 11
0.0
 21
-0.9999999999999998
 31
0.0
 12
-0.9999999999999998
 22
0.0
 32
0.0
 13
0.0
 23
0.9999999999999998
 33
0.0
  0
ENDBLK
  5
C4
330
C2
100
AcDbEntity
  8
0
100
AcDbBlockEnd
  0
BLOCK
  5
CE
330
CD
100
AcDbEntity
  8
0
100
AcDbBlockBegin
  2
Borders Default Border
 70
     0
 10
0.0
 20
0.0
 30
0.0
  3
Borders Default Border
  1

  0
POLYLINE
  5
D0
330
CD
100
AcDbEntity
  8
Border (ANSI)
100
AcDb2dPolyline
 66
     1
 10
0.0
 20
0.0
 30
0.0
 70
   128
  0
VERTEX
  5
D1
330
D0
100
AcDbEntity
  8
Border (ANSI)
100
AcDbVertex
100
AcDb2dVertex
 10
0.380000002740875
 20
0.380000002740875
 30
0.0
  0
VERTEX
  5
D2
330
D0
100
AcDbEntity
  8
Border (ANSI)
100
AcDbVertex
100
AcDb2dVertex
 10
0.380000002740875
 20
8.119999893068328
 30
0.0
  0
VERTEX
  5
D4
330
D0
100
AcDbEntity
  8
Border (ANSI)
100
AcDbVertex
100
AcDb2dVertex
 10
10.62000004325326
 20
8.119999893068328
 30
0.0
  0
VERTEX
  5
D5
330
D0
100
AcDbEntity
  8
Border (ANSI)
100
AcDbVertex
100
AcDb2dVertex
 10
10.62000004325326
 20
0.380000002740875
 30
0.0
  0
VERTEX
  5
D6
330
D0
100
AcDbEntity
  8
Border (ANSI)
100
AcDbVertex
100
AcDb2dVertex
 10
0.380000002740875
 20
0.380000002740875
 30
0.0
  0
SEQEND
  5
D3
330
D0
100
AcDbEntity
  8
Border (ANSI)
  0
POLYLINE
  5
D7
330
CD
100
AcDbEntity
  8
Border (ANSI)
100
AcDb2dPolyline
 66
     1
 10
0.0
 20
0.0
 30
0.0
 70
   128
  0
VERTEX
  5
D8
330
D7
100
AcDbEntity
  8
Border (ANSI)
100
AcDbVertex
100
AcDb2dVertex
 10
5.500000105129451
 20
0.1299999947623005
 30
0.0
  0
VERTEX
  5
D9
330
D7
100
AcDbEntity
  8
Border (ANSI)
100
AcDbVertex
100
AcDb2dVertex
 10
5.500000105129451
 20
0.380000002740875
 30
0.0
  0
VERTEX
  5
DB
330
D7
100
AcDbEntity
  8
Border (ANSI)
100
AcDbVertex
100
AcDb2dVertex
 10
5.413397466103861
 20
0.2300000096869281
 30
0.0
  0
VERTEX
  5
DC
330
D7
100
AcDbEntity
  8
Border (ANSI)
100
AcDbVertex
100
AcDb2dVertex
 10
5.586602368692712
 20
0.2300000096869281
 30
0.0
  0
VERTEX
  5
DD
330
D7
100
AcDbEntity
  8
Border (ANSI)
100
AcDbVertex
100
AcDb2dVertex
 10
5.500000105129451
 20
0.380000002740875
 30
0.0
  0
SEQEND
  5
DA
330
D7
100
AcDbEntity
  8
Border (ANSI)
  0
POLYLINE
  5
DE
330
CD
100
AcDbEntity
  8
Border (ANSI)
100
AcDb2dPolyline
 66
     1
 10
0.0
 20
0.0
 30
0.0
 70
   128
  0
VERTEX
  5
DF
330
DE
100
AcDbEntity
  8
Border (ANSI)
100
AcDbVertex
100
AcDb2dVertex
 10
5.500000105129451
 20
8.369999983179287
 30
0.0
  0
VERTEX
  5
E0
330
DE
100
AcDbEntity
  8
Border (ANSI)
100
AcDbVertex
100
AcDb2dVertex
 10
5.500000105129451
 20
8.119999893068328
 30
0.0
  0
VERTEX
  5
E2
330
DE
100
AcDbEntity
  8
Border (ANSI)
100
AcDbVertex
100
AcDb2dVertex
 10
5.413397466103861
 20
8.270000097319835
 30
0.0
  0
VERTEX
  5
E3
330
DE
100
AcDbEntity
  8
Border (ANSI)
100
AcDbVertex
100
AcDb2dVertex
 10
5.586602368692712
 20
8.270000097319835
 30
0.0
  0
VERTEX
  5
E4
330
DE
100
AcDbEntity
  8
Border (ANSI)
100
AcDbVertex
100
AcDb2dVertex
 10
5.500000105129451
 20
8.119999893068328
 30
0.0
  0
SEQEND
  5
E1
330
DE
100
AcDbEntity
  8
Border (ANSI)
  0
POLYLINE
  5
E5
330
CD
100
AcDbEntity
  8
Border (ANSI)
100
AcDb2dPolyline
 66
     1
 10
0.0
 20
0.0
 30
0.0
 70
   128
  0
VERTEX
  5
E6
330
E5
100
AcDbEntity
  8
Border (ANSI)
100
AcDbVertex
100
AcDb2dVertex
 10
0.1299999947623005
 20
4.250000030036986
 30
0.0
  0
VERTEX
  5
E7
330
E5
100
AcDbEntity
  8
Border (ANSI)
100
AcDbVertex
100
AcDb2dVertex
 10
0.380000002740875
 20
4.250000030036986
 30
0.0
  0
VERTEX
  5
E9
330
E5
100
AcDbEntity
  8
Border (ANSI)
100
AcDbVertex
100
AcDb2dVertex
 10
0.2300000096869281
 20
4.336602669062576
 30
0.0
  0
VERTEX
  5
EA
330
E5
100
AcDbEntity
  8
Border (ANSI)
100
AcDbVertex
100
AcDb2dVertex
 10
0.2300000096869281
 20
4.163397391011395
 30
0.0
  0
VERTEX
  5
EB
330
E5
100
AcDbEntity
  8
Border (ANSI)
100
AcDbVertex
100
AcDb2dVertex
 10
0.380000002740875
 20
4.250000030036986
 30
0.0
  0
SEQEND
  5
E8
330
E5
100
AcDbEntity
  8
Border (ANSI)
  0
POLYLINE
  5
EC
330
CD
100
AcDbEntity
  8
Border (ANSI)
100
AcDb2dPolyline
 66
     1
 10
0.0
 20
0.0
 30
0.0
 70
   128
  0
VERTEX
  5
ED
330
EC
100
AcDbEntity
  8
Border (ANSI)
100
AcDbVertex
100
AcDb2dVertex
 10
10.87000013336422
 20
4.250000030036986
 30
0.0
  0
VERTEX
  5
EE
330
EC
100
AcDbEntity
  8
Border (ANSI)
100
AcDbVertex
100
AcDb2dVertex
 10
10.62000004325326
 20
4.250000030036986
 30
0.0
  0
VERTEX
  5
F0
330
EC
100
AcDbEntity
  8
Border (ANSI)
100
AcDbVertex
100
AcDb2dVertex
 10
10.77000024750476
 20
4.336602669062576
 30
0.0
  0
VERTEX
  5
F1
330
EC
100
AcDbEntity
  8
Border (ANSI)
100
AcDbVertex
100
AcDb2dVertex
 10
10.77000024750476
 20
4.163397391011395
 30
0.0
  0
VERTEX
  5
F2
330
EC
100
AcDbEntity
  8
Border (ANSI)
100
AcDbVertex
100
AcDb2dVertex
 10
10.62000004325326
 20
4.250000030036986
 30
0.0
  0
SEQEND
  5
EF
330
EC
100
AcDbEntity
  8
Border (ANSI)
  0
MTEXT
  5
F4
330
CD
100
AcDbEntity
  8
Border (ANSI)
100
AcDbMText
 10
8.24092395498058
 20
8.16
 30
0.0
 40
0.1200000014830762
 41
0.0
 71
     7
 72
     1
  1
1
  7
Text Style29
 73
     1
 44
1.0
1001
ACAD
1000
MTEXTBEGIN
1070
    73
1070
     1
1070
    44
1040
1.0
1070
    74
1070
     0
1000
MTEXTEND
  0
MTEXT
  5
F7
330
CD
100
AcDbEntity
  8
Border (ANSI)
100
AcDbMText
 10
8.24092395498058
 20
0.2199999985169238
 30
0.0
 40
0.1200000014830762
 41
0.0
 71
     7
 72
     1
  1
1
  7
Text Style29
 73
     1
 44
1.0
1001
ACAD
1000
MTEXTBEGIN
1070
    73
1070
     1
1070
    44
1040
1.0
1070
    74
1070
     0
1000
MTEXTEND
  0
MTEXT
  5
F8
330
CD
100
AcDbEntity
  8
Border (ANSI)
100
AcDbMText
 10
2.722276993858532
 20
8.16
 30
0.0
 40
0.1200000014830762
 41
0.0
 71
     7
 72
     1
  1
2
  7
Text Style29
 73
     1
 44
1.0
1001
ACAD
1000
MTEXTBEGIN
1070
    73
1070
     1
1070
    44
1040
1.0
1070
    74
1070
     0
1000
MTEXTEND
  0
MTEXT
  5
F9
330
CD
100
AcDbEntity
  8
Border (ANSI)
100
AcDbMText
 10
2.722276993858532
 20
0.2199999985169238
 30
0.0
 40
0.1200000014830762
 41
0.0
 71
     7
 72
     1
  1
2
  7
Text Style29
 73
     1
 44
1.0
1001
ACAD
1000
MTEXTBEGIN
1070
    73
1070
     1
1070
    44
1040
1.0
1070
    74
1070
     0
1000
MTEXTEND
  0
MTEXT
  5
FA
330
CD
100
AcDbEntity
  8
Border (ANSI)
100
AcDbMText
 10
0.2281865791448458
 20
2.064999999258461
 30
0.0
 40
0.1200000014830762
 41
0.0
 71
     7
 72
     1
  1
A
  7
Text Style29
 73
     1
 44
1.764699935913085
1001
ACAD
1000
MTEXTBEGIN
1070
    73
1070
     1
1070
    44
1040
1.764699935913085
1070
    74
1070
     0
1000
MTEXTEND
  0
MTEXT
  5
FB
330
CD
100
AcDbEntity
  8
Border (ANSI)
100
AcDbMText
 10
10.66818658062792
 20
2.064999999258461
 30
0.0
 40
0.1200000014830762
 41
0.0
 71
     7
 72
     1
  1
A
  7
Text Style29
 73
     1
 44
1.0
1001
ACAD
1000
MTEXTBEGIN
1070
    73
1070
     1
1070
    44
1040
1.0
1070
    74
1070
     0
1000
MTEXTEND
  0
MTEXT
  5
FC
330
CD
100
AcDbEntity
  8
Border (ANSI)
100
AcDbMText
 10
0.2554072225563169
 20
6.314999999258461
 30
0.0
 40
0.1200000014830762
 41
0.0
 71
     7
 72
     1
  1
B
  7
Text Style29
 73
     1
 44
1.0
1001
ACAD
1000
MTEXTBEGIN
1070
    73
1070
     1
1070
    44
1040
1.0
1070
    74
1070
     0
1000
MTEXTEND
  0
MTEXT
  5
FD
330
CD
100
AcDbEntity
  8
Border (ANSI)
100
AcDbMText
 10
10.69540722403939
 20
6.314999999258461
 30
0.0
 40
0.1200000014830762
 41
0.0
 71
     7
 72
     1
  1
B
  7
Text Style29
 73
     1
 44
1.0
1001
ACAD
1000
MTEXTBEGIN
1070
    73
1070
     1
1070
    44
1040
1.0
1070
    74
1070
     0
1000
MTEXTEND
  0
ENDBLK
  5
CF
330
CD
100
AcDbEntity
  8
0
100
AcDbBlockEnd
  0
BLOCK
  5
189
330
188
100
AcDbEntity
  8
0
100
AcDbBlockBegin
  2
2dDetail1
 70
     0
 10
0.0
 20
0.0
 30
0.0
  3
2dDetail1
  1

  0
MTEXT
  5
18C
330
188
100
AcDbEntity
  8
Detail Boundary (ANSI)
100
AcDbMText
 10
2.834982416340302
 20
4.947131062511751
 30
0.0
 40
0.1799999963580154
 41
0.0
 71
     7
 72
     1
  1
G
  7
Text Style30
 73
     1
 44
1.0
1001
ACAD
1000
MTEXTBEGIN
1070
    73
1070
     1
1070
    44
1040
1.0
1070
    74
1070
     0
1000
MTEXTEND
  0
LINE
  5
18D
330
188
100
AcDbEntity
  8
Detail Boundary (ANSI)
  6
Continuous
100
AcDbLine
 10
2.751647721115506
 20
4.711229889962534
 30
0.0
 11
2.902586342749673
 21
4.837592898787635
 31
0.0
  0
POLYLINE
  5
18E
330
188
100
AcDbEntity
  8
Detail Boundary (ANSI)
  6
Continuous
100
AcDb2dPolyline
 66
     1
 10
0.0
 20
0.0
 30
0.0
 70
   128
  0
VERTEX
  5
18F
330
18E
100
AcDbEntity
  8
Detail Boundary (ANSI)
  6
Continuous
100
AcDbVertex
100
AcDb2dVertex
 10
2.776920326112761
 20
4.681042047936146
 30
0.0
  0
VERTEX
  5
190
330
18E
100
AcDbEntity
  8
Detail Boundary (ANSI)
  6
Continuous
100
AcDbVertex
100
AcDb2dVertex
 10
2.902586253609243
 20
4.837592943446842
 30
0.0
  0
VERTEX
  5
192
330
18E
100
AcDbEntity
  8
Detail Boundary (ANSI)
  6
Continuous
100
AcDbVertex
100
AcDb2dVertex
 10
2.726375211880901
 20
4.741417516873577
 30
0.0
  0
VERTEX
  5
193
330
18E
100
AcDbEntity
  8
Detail Boundary (ANSI)
  6
Continuous
100
AcDbVertex
100
AcDb2dVertex
 10
2.776920326112761
 20
4.681042047936146
 30
0.0
  0
SEQEND
  5
191
330
18E
100
AcDbEntity
  8
Detail Boundary (ANSI)
  6
Continuous
  0
SOLID
  5
194
330
188
100
AcDbEntity
  8
Detail Boundary (ANSI)
100
AcDbTrace
 10
2.776920326112761
 20
4.681042047936146
 30
0.0
 11
2.902586253609243
 21
4.837592943446842
 31
0.0
 12
2.726375211880901
 22
4.741417516873577
 32
0.0
 13
2.776920326112761
 23
4.681042047936146
 33
0.0
  0
LINE
  5
195
330
188
100
AcDbEntity
  8
Detail Boundary (ANSI)
  6
Continuous
100
AcDbLine
 10
2.776920322880526
 20
4.681042165635699
 30
0.0
 11
2.902586342749673
 21
4.837592898787635
 31
0.0
  0
LINE
  5
196
330
188
100
AcDbEntity
  8
Detail Boundary (ANSI)
  6
Continuous
100
AcDbLine
 10
2.902586342749673
 20
4.837592898787635
 30
0.0
 11
2.726375119350485
 21
4.741417614289367
 31
0.0
  0
LINE
  5
197
330
188
100
AcDbEntity
  8
Detail Boundary (ANSI)
  6
Continuous
100
AcDbLine
 10
2.726375119350485
 20
4.741417614289367
 30
0.0
 11
2.776920322880526
 21
4.681042165635699
 31
0.0
  0
LINE
  5
198
330
188
100
AcDbEntity
  8
Detail Boundary (ANSI)
  6
Continuous
100
AcDbLine
 10
2.751647721115506
 20
5.376743733255877
 30
0.0
 11
2.902586342749673
 21
5.250380724430774
 31
0.0
  0
POLYLINE
  5
199
330
188
100
AcDbEntity
  8
Detail Boundary (ANSI)
  6
Continuous
100
AcDb2dPolyline
 66
     1
 10
0.0
 20
0.0
 30
0.0
 70
   128
  0
VERTEX
  5
19A
330
199
100
AcDbEntity
  8
Detail Boundary (ANSI)
  6
Continuous
100
AcDbVertex
100
AcDb2dVertex
 10
2.726375211880901
 20
5.346556160393661
 30
0.0
  0
VERTEX
  5
19B
330
199
100
AcDbEntity
  8
Detail Boundary (ANSI)
  6
Continuous
100
AcDbVertex
100
AcDb2dVertex
 10
2.902586253609243
 20
5.250380733820396
 30
0.0
  0
VERTEX
  5
19D
330
199
100
AcDbEntity
  8
Detail Boundary (ANSI)
  6
Continuous
100
AcDbVertex
100
AcDb2dVertex
 10
2.776920326112761
 20
5.406931629331092
 30
0.0
  0
VERTEX
  5
19E
330
199
100
AcDbEntity
  8
Detail Boundary (ANSI)
  6
Continuous
100
AcDbVertex
100
AcDb2dVertex
 10
2.726375211880901
 20
5.346556160393661
 30
0.0
  0
SEQEND
  5
19C
330
199
100
AcDbEntity
  8
Detail Boundary (ANSI)
  6
Continuous
  0
SOLID
  5
19F
330
188
100
AcDbEntity
  8
Detail Boundary (ANSI)
100
AcDbTrace
 10
2.726375211880901
 20
5.346556160393661
 30
0.0
 11
2.902586253609243
 21
5.250380733820396
 31
0.0
 12
2.776920326112761
 22
5.406931629331092
 32
0.0
 13
2.726375211880901
 23
5.346556160393661
 33
0.0
  0
LINE
  5
1A0
330
188
100
AcDbEntity
  8
Detail Boundary (ANSI)
  6
Continuous
100
AcDbLine
 10
2.726375119350486
 20
5.346556008929042
 30
0.0
 11
2.902586342749673
 21
5.250380724430774
 31
0.0
  0
LINE
  5
1A1
330
188
100
AcDbEntity
  8
Detail Boundary (ANSI)
  6
Continuous
100
AcDbLine
 10
2.902586342749673
 20
5.250380724430774
 30
0.0
 11
2.776920322880526
 21
5.40693145758271
 31
0.0
  0
LINE
  5
1A2
330
188
100
AcDbEntity
  8
Detail Boundary (ANSI)
  6
Continuous
100
AcDbLine
 10
2.776920322880526
 20
5.40693145758271
 30
0.0
 11
2.726375119350486
 21
5.346556008929042
 31
0.0
  0
ARC
  5
1A3
330
188
100
AcDbEntity
  8
Detail Boundary (ANSI)
 48
0.5289930701255799
100
AcDbCircle
 10
2.473069810628387
 20
5.043986811609205
 30
0.0
 40
0.4339732953940119
100
AcDbArc
 50
50.06455625839609
 51
309.9354437416039
  0
ENDBLK
  5
18A
330
188
100
AcDbEntity
  8
0
100
AcDbBlockEnd
  0
ENDSEC
  0
SECTION
  2
ENTITIES
  0
INSERT
  5
FE
330
37
100
AcDbEntity
  8
0
100
AcDbBlockReference
  2
Borders Default Border
 10
0.0
 20
0.0
 30
0.0
 41
0.2
 42
0.2
 43
0.2
  0
LINE
  5
FF
330
37
100
AcDbEntity
  8
Visible (ANSI)
100
AcDbLine
 10
0.8142214791684034
 20
0.8854391119243199
 30
0.0
 11
0.8273015404067923
 21
0.8778873350473194
 31
0.0
  0
LINE
  5
100
330
37
100
AcDbEntity
  8
Visible (ANSI)
100
AcDbLine
 10
0.8273015404067921
 20
0.5085245309508233
 30
0.0
 11
0.8273015404067923
 21
0.8778873350473194
 31
0.0
  0
LINE
  5
101
330
37
100
AcDbEntity
  8
Visible (ANSI)
100
AcDbLine
 10
0.5091034888728459
 20
1.427083176329549
 30
0.0
 11
0.8273015404067923
 21
1.24337144562081
 31
0.0
  0
LINE
  5
102
330
37
100
AcDbEntity
  8
Visible (ANSI)
100
AcDbLine
 10
0.8273015404067923
 20
0.8929908888013207
 30
0.0
 11
0.8273015404067923
 21
1.24337144562081
 31
0.0
  0
LINE
  5
103
330
37
100
AcDbEntity
  8
Visible (ANSI)
100
AcDbLine
 10
0.6121643022307852
 20
0.9897471951701358
 30
0.0
 11
0.5091034888728457
 21
0.9302450068350278
 31
0.0
  0
LINE
  5
104
330
37
100
AcDbEntity
  8
Visible (ANSI)
100
AcDbLine
 10
0.5091034888728457
 20
0.9302450068350278
 30
0.0
 11
0.5091034888728457
 21
0.9045253645358044
 31
0.0
  0
LINE
  5
105
330
37
100
AcDbEntity
  8
Visible (ANSI)
100
AcDbLine
 10
0.5091034888728457
 20
0.9045253645358044
 30
0.0
 11
0.5221849643247971
 21
0.9120779579093859
 31
0.0
  0
LINE
  5
106
330
37
100
AcDbEntity
  8
Visible (ANSI)
100
AcDbLine
 10
0.5221849643247971
 20
0.9120779579093859
 30
0.0
 11
0.5221849643247971
 21
0.896972771162223
 31
0.0
  0
LINE
  5
107
330
37
100
AcDbEntity
  8
Visible (ANSI)
100
AcDbLine
 10
0.5221849643247971
 20
0.896972771162223
 30
0.0
 11
0.5091034888728457
 21
0.8894201777886415
 31
0.0
  0
LINE
  5
108
330
37
100
AcDbEntity
  8
Visible (ANSI)
100
AcDbLine
 10
0.5091034888728457
 20
0.8894201777886415
 30
0.0
 11
0.5091034888728455
 21
0.3248128002420849
 31
0.0
  0
LINE
  5
109
330
37
100
AcDbEntity
  8
Visible (ANSI)
100
AcDbLine
 10
0.5091034888728455
 20
0.3248128002420849
 30
0.0
 11
0.8273015404067921
 21
0.5085245309508233
 31
0.0
  0
LINE
  5
10A
330
37
100
AcDbEntity
  8
Visible (ANSI)
100
AcDbLine
 10
0.8273015404067923
 20
0.8778873350473194
 30
0.0
 11
0.7636619300995689
 21
0.8411449889053212
 31
0.0
  0
LINE
  5
10B
330
37
100
AcDbEntity
  8
Visible (ANSI)
100
AcDbLine
 10
0.7636619300995689
 20
0.8411449889053212
 30
0.0
 11
0.7459842605703392
 21
0.8309379651473943
 31
0.0
  0
LINE
  5
10C
330
37
100
AcDbEntity
  8
Visible (ANSI)
100
AcDbLine
 10
0.7459842605703392
 20
0.8309379651473943
 30
0.0
 11
0.6752735824516845
 21
0.7901131361010082
 31
0.0
  0
ELLIPSE
  5
10D
330
37
100
AcDbEntity
  8
Visible (ANSI)
100
AcDbEllipse
 10
0.6752735824516845
 20
0.8303255927116985
 30
0.0
 11
-0.024625
 21
-0.0426517511363836
 31
0.0
210
0.0
220
0.0
230
1.0
 40
0.5773502691896258
 41
5.497787143782137
 42
7.068583470577034
  0
LINE
  5
10E
330
37
100
AcDbEntity
  8
Visible (ANSI)
100
AcDbLine
 10
0.6404485734782471
 20
0.8102193644063532
 30
0.0
 11
0.6404485734782471
 21
0.9379392286404739
 31
0.0
  0
ELLIPSE
  5
10F
330
37
100
AcDbEntity
  8
Visible (ANSI)
100
AcDbEllipse
 10
0.6459286510324433
 20
0.9448392381868128
 30
0.0
 11
-0.0045000000000003
 21
-0.0077942286340604
 31
0.0
210
0.0
220
0.0
230
0.9999999999999998
 40
0.5773502691896258
 41
5.497787143782161
 42
6.031132392692788
  0
LINE
  5
110
330
37
100
AcDbEntity
  8
Visible (ANSI)
100
AcDbLine
 10
0.6395646900017639
 20
0.9411650035726374
 30
0.0
 11
0.6395646900017639
 21
0.9475133054783
 31
0.0
  0
ELLIPSE
  5
111
330
37
100
AcDbEntity
  8
Visible (ANSI)
100
AcDbEllipse
 10
0.6441608840794762
 20
0.9552495695936404
 30
0.0
 11
-0.0044999999999999
 21
-0.0077942286340597
 31
0.0
210
0.0
220
0.0
230
1.0
 40
0.5773502691896258
 41
5.497787143782149
 42
6.26157364018002
  0
LINE
  5
112
330
37
100
AcDbEntity
  8
Visible (ANSI)
100
AcDbLine
 10
0.6377969230487976
 20
0.9515753349794659
 30
0.0
 11
0.6377969230487976
 21
0.9571896443235825
 31
0.0
  0
ELLIPSE
  5
113
330
37
100
AcDbEntity
  8
Visible (ANSI)
100
AcDbEllipse
 10
0.6416860103453234
 20
0.9652516527100052
 30
0.0
 11
-0.0044999999999999
 21
-0.0077942286340598
 31
0.0
210
0.0
220
0.0
230
1.0
 40
0.5773502691896258
 41
5.497787143782129
 42
6.411119914195413
  0
LINE
  5
114
330
37
100
AcDbEntity
  8
Visible (ANSI)
100
AcDbLine
 10
0.6353220493146445
 20
0.9615774180958307
 30
0.0
 11
0.6353220493146445
 21
0.9675730714943741
 31
0.0
  0
ELLIPSE
  5
115
330
37
100
AcDbEntity
  8
Visible (ANSI)
100
AcDbEllipse
 10
0.6402717967829519
 20
0.9750496116811394
 30
0.0
 11
-0.0045000000000011
 21
-0.0077942286340618
 31
0.0
210
0.0
220
0.0
230
1.0
 40
0.5773502691896258
 41
5.497787143782208
 42
6.177460962690295
  0
LINE
  5
116
330
37
100
AcDbEntity
  8
Visible (ANSI)
100
AcDbLine
 10
0.6339078357522715
 20
0.9713753770669633
 30
0.0
 11
0.6339078357522715
 21
0.977193560238372
 31
0.0
  0
ELLIPSE
  5
117
330
37
100
AcDbEntity
  8
Visible (ANSI)
100
AcDbEllipse
 10
0.6121643022307851
 20
0.9646399253066082
 30
0.0
 11
0.0153750000000001
 21
0.0266302811663716
 31
0.0
210
0.0
220
0.0
230
1.0
 40
0.5773502691896258
 41
5.497787143782145
 42
7.06858347057703
  0
LINE
  5
118
330
37
100
AcDbEntity
  8
Visible (ANSI)
100
AcDbLine
 10
0.1909054373388992
 20
1.243371445620811
 30
0.0
 11
0.5091034888728459
 21
1.427083176329549
 31
0.0
  0
LINE
  5
119
330
37
100
AcDbEntity
  8
Visible (ANSI)
100
AcDbLine
 10
0.1909054373388992
 20
0.5085245309508232
 30
0.0
 11
0.1909054373388992
 21
1.243371445620811
 31
0.0
  0
LINE
  5
11A
330
37
100
AcDbEntity
  8
Visible (ANSI)
100
AcDbLine
 10
0.5091034888728457
 20
0.8894201777886415
 30
0.0
 11
0.438392810754191
 21
0.930245006835028
 31
0.0
  0
ELLIPSE
  5
11B
330
37
100
AcDbEntity
  8
Visible (ANSI)
100
AcDbEllipse
 10
0.438392810754191
 20
0.9908698779689117
 30
0.0
 11
-0.0371249999999962
 21
0.0643023862309969
 31
0.0
210
0.0
220
0.0
230
1.0
 40
0.577350269189626
 41
5.49778714378238
 42
8.639379797372173
  0
LINE
  5
11C
330
37
100
AcDbEntity
  8
Visible (ANSI)
100
AcDbLine
 10
0.438392810754191
 20
1.051494749102795
 30
0.0
 11
0.4935471396867417
 21
1.019651382446613
 31
0.0
  0
LINE
  5
11D
330
37
100
AcDbEntity
  8
Visible (ANSI)
100
AcDbLine
 10
0.4935471396867417
 20
1.019651382446613
 30
0.0
 11
0.4935471396867417
 21
1.068641177302277
 31
0.0
  0
LINE
  5
11E
330
37
100
AcDbEntity
  8
Visible (ANSI)
100
AcDbLine
 10
0.1909054373388992
 20
1.243371445620811
 30
0.0
 11
0.4935471396867417
 21
1.068641177302277
 31
0.0
  0
LINE
  5
11F
330
37
100
AcDbEntity
  8
Visible (ANSI)
100
AcDbLine
 10
0.1909054373388992
 20
0.5085245309508232
 30
0.0
 11
0.5091034888728455
 21
0.3248128002420849
 31
0.0
  0
LINE
  5
120
330
37
100
AcDbEntity
  8
Visible (ANSI)
100
AcDbLine
 10
0.7636619301000714
 20
0.8562485426596124
 30
0.0
 11
0.8273015404067923
 21
0.8929908888013207
 31
0.0
  0
LINE
  5
121
330
37
100
AcDbEntity
  8
Visible (ANSI)
100
AcDbLine
 10
0.8273015404067923
 20
1.24337144562081
 30
0.0
 11
0.5246598380589499
 21
1.068641177302277
 31
0.0
  0
LINE
  5
122
330
37
100
AcDbEntity
  8
Visible (ANSI)
100
AcDbLine
 10
0.5246598380589499
 20
1.068641177302277
 30
0.0
 11
0.5246598380589499
 21
1.019651382446613
 31
0.0
  0
LINE
  5
123
330
37
100
AcDbEntity
  8
Visible (ANSI)
100
AcDbLine
 10
0.5246598380589499
 20
1.019651382446613
 30
0.0
 11
0.7176999893228775
 21
1.131103165743248
 31
0.0
  0
ELLIPSE
  5
124
330
37
100
AcDbEntity
  8
Visible (ANSI)
100
AcDbEllipse
 10
0.7176999893228775
 20
1.090890709132558
 30
0.0
 11
0.024625
 21
0.0426517511363836
 31
0.0
210
0.0
220
0.0
230
1.0
 40
0.5773502691896258
 41
3.92699081698724
 42
7.068583470577034
  0
LINE
  5
125
330
37
100
AcDbEntity
  8
Visible (ANSI)
100
AcDbLine
 10
0.7176999893228775
 20
1.050678252521867
 30
0.0
 11
0.6818143201776601
 21
1.029959651780826
 31
0.0
  0
ELLIPSE
  5
126
330
37
100
AcDbEntity
  8
Visible (ANSI)
100
AcDbEllipse
 10
0.6818143201776601
 20
1.004852381917298
 30
0.0
 11
-0.0153749999999985
 21
-0.0266302811663725
 31
0.0
210
0.0
220
0.0
230
1.0
 40
0.5773502691896257
 41
3.926990816987011
 42
5.497787143781895
  0
LINE
  5
127
330
37
100
AcDbEntity
  8
Visible (ANSI)
100
AcDbLine
 10
0.6600707866561737
 20
0.9922987469855351
 30
0.0
 11
0.6600707866561737
 21
0.9864805638141261
 31
0.0
  0
ELLIPSE
  5
128
330
37
100
AcDbEntity
  8
Visible (ANSI)
100
AcDbEllipse
 10
0.6537068256254937
 20
0.9828063291999511
 30
0.0
 11
-0.0045000000000013
 21
-0.0077942286340611
 31
0.0
210
0.0
220
0.0
230
1.0
 40
0.5773502691896257
 41
1.676520671284277
 42
2.356194490192544
  0
LINE
  5
129
330
37
100
AcDbEntity
  8
Visible (ANSI)
100
AcDbLine
 10
0.6586565730938007
 20
0.9810452650796815
 30
0.0
 11
0.6586565730938007
 21
0.9750496116811381
 31
0.0
  0
ELLIPSE
  5
12A
330
37
100
AcDbEntity
  8
Visible (ANSI)
100
AcDbEllipse
 10
0.6522926120631217
 20
0.9713753770669635
 30
0.0
 11
-0.0045000000000005
 21
-0.0077942286340597
 31
0.0
210
0.0
220
0.0
230
1.0
 40
0.5773502691896259
 41
1.442861719779198
 42
2.356194490192574
  0
LINE
  5
12B
330
37
100
AcDbEntity
  8
Visible (ANSI)
100
AcDbLine
 10
0.6561816993596479
 20
0.9678040998756427
 30
0.0
 11
0.6561816993596479
 21
0.9621897905315263
 31
0.0
  0
ELLIPSE
  5
12C
330
37
100
AcDbEntity
  8
Visible (ANSI)
100
AcDbEllipse
 10
0.6498177383289691
 20
0.9585155559173516
 30
0.0
 11
-0.0045000000000003
 21
-0.0077942286340594
 31
0.0
210
0.0
220
0.0
230
0.9999999999999998
 40
0.5773502691896257
 41
1.592407993794589
 42
2.356194490192585
  0
LINE
  5
12D
330
37
100
AcDbEntity
  8
Visible (ANSI)
100
AcDbLine
 10
0.6544139324066812
 20
0.9560865195780412
 30
0.0
 11
0.6544139324066812
 21
0.9497382176723785
 31
0.0
  0
ELLIPSE
  5
12E
330
37
100
AcDbEntity
  8
Visible (ANSI)
100
AcDbEllipse
 10
0.6480499713760022
 20
0.9460639830582039
 30
0.0
 11
-0.0045000000000007
 21
-0.00779422863406
 31
0.0
210
0.0
220
0.0
230
1.0
 40
0.5773502691896258
 41
1.822849241281792
 42
2.356194490192551
  0
LINE
  5
12F
330
37
100
AcDbEntity
  8
Visible (ANSI)
100
AcDbLine
 10
0.6535300489301981
 20
0.9454918220140553
 30
0.0
 11
0.6535300489301981
 21
0.8177719577799347
 31
0.0
  0
ELLIPSE
  5
130
330
37
100
AcDbEntity
  8
Visible (ANSI)
100
AcDbEllipse
 10
0.6752735824516845
 20
0.8303255927116987
 30
0.0
 11
-0.0153750000000001
 21
-0.0266302811663716
 31
0.0
210
0.0
220
0.0
230
1.0
 40
0.5773502691896258
 41
5.497787143782145
 42
7.068583470577028
  0
LINE
  5
131
330
37
100
AcDbEntity
  8
Visible (ANSI)
100
AcDbLine
 10
0.6752735824516845
 20
0.8052183228481711
 30
0.0
 11
0.7459842605703392
 21
0.8460431518945572
 31
0.0
  0
LINE
  5
132
330
37
100
AcDbEntity
  8
Visible (ANSI)
100
AcDbLine
 10
0.7459842605703392
 20
0.8460431518945572
 30
0.0
 11
0.7636619301000714
 21
0.8562485426596124
 31
0.0
  0
ELLIPSE
  5
133
330
37
100
AcDbEntity
  8
Visible (ANSI)
100
AcDbEllipse
 10
0.5091034888728459
 20
1.059659714912072
 30
0.0
 11
0.0220000000000001
 21
-0.0000000000000013
 31
0.0
210
0.0
220
0.0
230
1.0
 40
0.5773502691896258
 41
0.7853981633976961
 42
2.356194490192583
  0
ELLIPSE
  5
134
330
37
100
AcDbEntity
  8
Visible (ANSI)
100
AcDbEllipse
 10
0.5990828267788341
 20
0.9721925186801907
 30
0.0
 11
0.0153749999999995
 21
0.0266302811663706
 31
0.0
210
0.0
220
0.0
230
1.0
 40
0.5773502691896257
 41
0.0
 42
0.7853981633974608
  0
LINE
  5
135
330
37
100
AcDbEntity
  8
Visible (ANSI)
100
AcDbLine
 10
0.5091034888728457
 20
0.9453501935821908
 30
0.0
 11
0.4960220134208945
 21
0.9377976002086093
 31
0.0
  0
LINE
  5
136
330
37
100
AcDbEntity
  8
Visible (ANSI)
100
AcDbLine
 10
0.5091034888728457
 20
0.9302450068350278
 30
0.0
 11
0.4960220134208945
 21
0.9377976002086093
 31
0.0
  0
LINE
  5
137
330
37
100
AcDbEntity
  8
Visible (ANSI)
100
AcDbLine
 10
0.4960220134208945
 20
0.9377976002086093
 30
0.0
 11
0.4960220134208945
 21
0.9529027869557722
 31
0.0
  0
ELLIPSE
  5
138
330
37
100
AcDbEntity
  8
Visible (ANSI)
100
AcDbEllipse
 10
0.6621921069997335
 20
0.8378781860852811
 30
0.0
 11
-0.0246250000000005
 21
-0.0426517511363846
 31
0.0
210
0.0
220
0.0
230
1.0
 40
0.5773502691896259
 41
0.2688404475953589
 42
0.7853981633974402
  0
LINE
  5
139
330
37
100
AcDbEntity
  8
Visible (ANSI)
100
AcDbLine
 10
0.6752735824516844
 20
0.8052183228481711
 30
0.0
 11
0.6621921069997333
 21
0.7976657294745895
 31
0.0
  0
ELLIPSE
  5
13A
330
37
100
AcDbEntity
  8
Visible (ANSI)
100
AcDbEllipse
 10
0.6621921069997324
 20
0.8378781860852793
 30
0.0
 11
-0.0153749999999995
 21
-0.0266302811663706
 31
0.0
210
0.0
220
0.0
230
1.0
 40
0.5773502691896257
 41
5.497787143782131
 42
6.283185307179603
  0
LINE
  5
13B
330
37
100
AcDbEntity
  8
Visible (ANSI)
100
AcDbLine
 10
0.6404485734782469
 20
0.9530444153876366
 30
0.0
 11
0.6404485734782469
 21
0.937939228640474
 31
0.0
  0
ELLIPSE
  5
13C
330
37
100
AcDbEntity
  8
Visible (ANSI)
100
AcDbEllipse
 10
0.634968495924051
 20
0.9536165764317853
 30
0.0
 11
-0.0045000000000007
 21
-0.00779422863406
 31
0.0
210
0.0
220
0.0
230
1.0
 40
0.5773502691896258
 41
1.82284924128179
 42
2.356194490192551
  0
LINE
  5
13D
330
37
100
AcDbEntity
  8
Visible (ANSI)
100
AcDbLine
 10
0.6413324569547302
 20
0.9636391129516226
 30
0.0
 11
0.6413324569547302
 21
0.95729081104596
 31
0.0
  0
ELLIPSE
  5
13E
330
37
100
AcDbEntity
  8
Visible (ANSI)
100
AcDbEllipse
 10
0.6367362628770179
 20
0.9660681492909331
 30
0.0
 11
-0.0045000000000003
 21
-0.0077942286340594
 31
0.0
210
0.0
220
0.0
230
0.9999999999999998
 40
0.5773502691896255
 41
1.592407993794589
 42
2.356194490192585
  0
LINE
  5
13F
330
37
100
AcDbEntity
  8
Visible (ANSI)
100
AcDbLine
 10
0.6431002239076966
 20
0.9753566932492244
 30
0.0
 11
0.6431002239076966
 21
0.9697423839051078
 31
0.0
  0
ELLIPSE
  5
140
330
37
100
AcDbEntity
  8
Visible (ANSI)
100
AcDbEllipse
 10
0.6392111366111707
 20
0.9789279704405448
 30
0.0
 11
-0.0045000000000005
 21
-0.0077942286340597
 31
0.0
210
0.0
220
0.0
230
0.9999999999999998
 40
0.5773502691896258
 41
1.442861719779198
 42
2.356194490192574
  0
LINE
  5
141
330
37
100
AcDbEntity
  8
Visible (ANSI)
100
AcDbLine
 10
0.6455750976418495
 20
0.988597858453263
 30
0.0
 11
0.6455750976418495
 21
0.9826022050547196
 31
0.0
  0
ELLIPSE
  5
142
330
37
100
AcDbEntity
  8
Visible (ANSI)
100
AcDbEllipse
 10
0.6406253501735449
 20
0.9903589225735327
 30
0.0
 11
-0.0044999999999995
 21
-0.007794228634058
 31
0.0
210
0.0
220
0.0
230
1.0
 40
0.5773502691896259
 41
1.676520671284118
 42
2.1887464109729
  0
ELLIPSE
  5
143
330
37
100
AcDbEntity
  8
Visible (ANSI)
100
AcDbEllipse
 10
0.7046185138709272
 20
1.09844330250614
 30
0.0
 11
0.0246249999999993
 21
0.0426517511363825
 31
0.0
210
0.0
220
0.0
230
1.0
 40
0.5773502691896255
 41
5.286061231436227
 42
6.01434485958424
  0
LINE
  5
144
330
37
100
AcDbEntity
  8
Visible (ANSI)
100
AcDbLine
 10
0.5091034888728459
 20
1.010669920056409
 30
0.0
 11
0.5091034888728459
 21
1.023371625978581
 31
0.0
  0
LINE
  5
145
330
37
100
AcDbEntity
  8
Visible (ANSI)
100
AcDbLine
 10
0.5246598380589497
 20
1.019651382446614
 30
0.0
 11
0.5091034888728459
 21
1.010669920056409
 31
0.0
  0
ELLIPSE
  5
146
330
37
100
AcDbEntity
  8
Visible (ANSI)
100
AcDbEllipse
 10
0.7046185138709264
 20
1.09844330250614
 30
0.0
 11
0.0153749999999997
 21
0.0266302811663704
 31
0.0
210
0.0
220
0.0
230
1.0
 40
0.5773502691896258
 41
0.0000000000000588
 42
0.7853981633975203
  0
ELLIPSE
  5
147
330
37
100
AcDbEntity
  8
Visible (ANSI)
100
AcDbEllipse
 10
0.5990828267788374
 20
0.9721925186801934
 30
0.0
 11
0.0246249999999974
 21
0.0426517511363791
 31
0.0
210
0.0
220
0.0
230
1.0
 40
0.5773502691896258
 41
5.69964680049524
 42
6.014344859584246
  0
LINE
  5
148
330
37
100
AcDbEntity
  8
Visible (ANSI)
100
AcDbLine
 10
0.4960220134208945
 20
0.9529027869557722
 30
0.0
 11
0.5091034888728457
 21
0.9453501935821908
 31
0.0
  0
LINE
  5
149
330
37
100
AcDbEntity
  8
Visible (ANSI)
100
AcDbLine
 10
0.5091034888728457
 20
0.9453501935821908
 30
0.0
 11
0.6121643022307852
 21
1.004852381917298
 31
0.0
  0
ELLIPSE
  5
14A
330
37
100
AcDbEntity
  8
Visible (ANSI)
100
AcDbEllipse
 10
0.6121643022307852
 20
0.9646399253066084
 30
0.0
 11
0.024625
 21
0.0426517511363836
 31
0.0
210
0.0
220
0.0
230
1.0
 40
0.5773502691896257
 41
5.699646800495255
 42
7.068583470577034
  0
LINE
  5
14B
330
37
100
AcDbEntity
  8
Visible (ANSI)
100
AcDbLine
 10
0.6332007288016422
 20
0.9999527573016059
 30
0.0
 11
0.6462822042535934
 21
0.9924001639280247
 31
0.0
  0
LINE
  5
14C
330
37
100
AcDbEntity
  8
Visible (ANSI)
100
AcDbLine
 10
0.6462822042535934
 20
0.9924001639280247
 30
0.0
 11
0.6476964181548518
 21
0.9932166607046077
 31
0.0
  0
ELLIPSE
  5
14D
330
37
100
AcDbEntity
  8
Visible (ANSI)
100
AcDbEllipse
 10
0.68181432017766
 20
1.004852381917299
 30
0.0
 11
0.0246250000000025
 21
0.042651751136382
 31
0.0
210
0.0
220
0.0
230
1.0
 40
0.5773502691896255
 41
0.7853981633976331
 42
2.15433483347936
  0
LINE
  5
14E
330
37
100
AcDbEntity
  8
Visible (ANSI)
100
AcDbLine
 10
0.6818143201776601
 20
1.045064838527989
 30
0.0
 11
0.7176999893228775
 21
1.06578343926903
 31
0.0
  0
ELLIPSE
  5
14F
330
37
100
AcDbEntity
  8
Visible (ANSI)
100
AcDbEllipse
 10
0.7176999893228775
 20
1.090890709132558
 30
0.0
 11
0.0153749999999984
 21
0.0266302811663724
 31
0.0
210
0.0
220
0.0
230
1.0
 40
0.5773502691896257
 41
3.926990816987004
 42
7.068583470576797
  0
ELLIPSE
  5
150
330
37
100
AcDbEntity
  8
Visible (ANSI)
100
AcDbEllipse
 10
0.5175887702470844
 20
1.003321450828059
 30
0.0
 11
-0.00175
 21
-0.0030310889132456
 31
0.0
210
0.0
220
0.0
230
1.0
 40
0.5773502691896259
 41
5.497787143782139
 42
7.068583470577033
  0
LINE
  5
151
330
37
100
AcDbEntity
  8
Visible (ANSI)
100
AcDbLine
 10
0.5151138965129317
 20
1.001892581811435
 30
0.0
 11
0.5151138965129317
 21
1.005730115741796
 31
0.0
  0
LINE
  5
152
330
37
100
AcDbEntity
  8
Visible (ANSI)
100
AcDbLine
 10
0.509103488872846
 20
1.009200226210739
 30
0.0
 11
0.5151138965129317
 21
1.005730115741796
 31
0.0
  0
LINE
  5
153
330
37
100
AcDbEntity
  8
Visible (ANSI)
100
AcDbLine
 10
0.5151138965129317
 20
1.005730115741796
 30
0.0
 11
0.5091034888728457
 21
1.002260005272853
 31
0.0
  0
LINE
  5
154
330
37
100
AcDbEntity
  8
Visible (ANSI)
100
AcDbLine
 10
0.5030930812327601
 20
1.005730115741796
 30
0.0
 11
0.509103488872846
 21
1.009200226210739
 31
0.0
  0
LINE
  5
155
330
37
100
AcDbEntity
  8
Visible (ANSI)
100
AcDbLine
 10
0.5091034888728457
 20
1.002260005272853
 30
0.0
 11
0.5030930812327601
 21
1.005730115741796
 31
0.0
  0
LINE
  5
156
330
37
100
AcDbEntity
  8
Visible (ANSI)
100
AcDbLine
 10
0.5030930812327601
 20
1.005730115741796
 30
0.0
 11
0.5030930812327601
 21
1.001892581811435
 31
0.0
  0
ELLIPSE
  5
157
330
37
100
AcDbEntity
  8
Visible (ANSI)
100
AcDbEllipse
 10
0.5006182074986071
 20
1.003321450828059
 30
0.0
 11
0.00175
 21
-0.0030310889132455
 31
0.0
210
0.0
220
0.0
230
1.0
 40
0.5773502691896258
 41
5.497787143782108
 42
7.068583470577018
  0
LINE
  5
158
330
37
100
AcDbEntity
  8
Visible (ANSI)
100
AcDbLine
 10
0.7176999893228775
 20
1.115997978996085
 30
0.0
 11
0.5175887702470844
 21
1.000463712794812
 31
0.0
  0
LINE
  5
159
330
37
100
AcDbEntity
  8
Visible (ANSI)
100
AcDbLine
 10
0.4935471396867418
 20
1.019651382446614
 30
0.0
 11
0.5091034888728459
 21
1.010669920056409
 31
0.0
  0
LINE
  5
15A
330
37
100
AcDbEntity
  8
Visible (ANSI)
100
AcDbLine
 10
0.5006182074986071
 20
1.000463712794812
 30
0.0
 11
0.438392810754191
 21
1.036389562355632
 31
0.0
  0
ELLIPSE
  5
15B
330
37
100
AcDbEntity
  8
Visible (ANSI)
100
AcDbEllipse
 10
0.438392810754191
 20
0.9908698779689114
 30
0.0
 11
-0.0278750000000001
 21
0.0482809162609825
 31
0.0
210
0.0
220
0.0
230
1.0
 40
0.5773502691896259
 41
5.497787143782139
 42
8.639379797371933
  0
ELLIPSE
  5
15C
330
37
100
AcDbEntity
  8
Visible (ANSI)
100
AcDbEllipse
 10
0.4514742862061427
 20
0.998422471342492
 30
0.0
 11
-0.0278750000000007
 21
0.0482809162609836
 31
0.0
210
0.0
220
0.0
230
1.0
 40
0.5773502691896258
 41
5.49778714378215
 42
6.28318530717958
  0
LINE
  5
15D
330
37
100
AcDbEntity
  8
Visible (ANSI)
100
AcDbLine
 10
0.438392810754191
 20
0.9453501935821908
 30
0.0
 11
0.5091034888728457
 21
0.9045253645358044
 31
0.0
  0
ELLIPSE
  5
15E
330
37
100
AcDbEntity
  8
Visible (ANSI)
100
AcDbEllipse
 10
0.4514742862061422
 20
0.9984224713424934
 30
0.0
 11
-0.0371249999999999
 21
0.0643023862309944
 31
0.0
210
0.0
220
0.0
230
1.0
 40
0.5773502691896258
 41
0.177105901988901
 42
0.9193332703486786
  0
LINE
  5
15F
330
37
100
AcDbEntity
  8
Visible (ANSI)
100
AcDbLine
 10
0.5091034888728459
 20
0.9045253645358048
 30
0.0
 11
0.5221849643247971
 21
0.896972771162223
 31
0.0
  0
ELLIPSE
  5
160
330
37
100
AcDbEntity
  8
Visible (ANSI)
100
AcDbEllipse
 10
0.5091034888728459
 20
1.010669920056408
 30
0.0
 11
-0.0220000000000001
 21
-0.0000000000000013
 31
0.0
210
0.0
220
0.0
230
1.0
 40
0.5773502691896259
 41
3.926990816987004
 42
5.497787143781898
  0
LINE
  5
161
330
37
100
AcDbEntity
  8
Visible (ANSI)
100
AcDbLine
 10
0.6377969230487976
 20
0.9571896443235825
 30
0.0
 11
0.6366486499254207
 21
0.9578526001204673
 31
0.0
  0
LINE
  5
162
330
37
100
AcDbEntity
  8
Visible (ANSI)
100
AcDbLine
 10
0.6404485734782469
 20
0.9530444153876366
 30
0.0
 11
0.6535300489301981
 21
0.9454918220140553
 31
0.0
  0
LINE
  5
163
330
37
100
AcDbEntity
  8
Visible (ANSI)
100
AcDbLine
 10
0.6413324569547302
 20
0.9636391129516226
 30
0.0
 11
0.6544139324066812
 21
0.9560865195780412
 31
0.0
  0
LINE
  5
164
330
37
100
AcDbEntity
  8
Visible (ANSI)
100
AcDbLine
 10
0.6431002239076966
 20
0.9753566932492244
 30
0.0
 11
0.6561816993596479
 21
0.9678040998756427
 31
0.0
  0
LINE
  5
165
330
37
100
AcDbEntity
  8
Visible (ANSI)
100
AcDbLine
 10
0.6455750976418495
 20
0.988597858453263
 30
0.0
 11
0.6586565730938007
 21
0.9810452650796815
 31
0.0
  0
LINE
  5
166
330
37
100
AcDbEntity
  8
Visible (ANSI)
100
AcDbLine
 10
0.5091034888728457
 20
1.002260005272853
 30
0.0
 11
0.5091034888728457
 21
0.9453501935821908
 31
0.0
  0
LINE
  5
167
330
37
100
AcDbEntity
  8
Visible (ANSI)
100
AcDbLine
 10
0.627539302230785
 20
0.9912702064729797
 30
0.0
 11
0.6144578267788339
 21
0.9988227998465612
 31
0.0
  0
LINE
  5
168
330
37
100
AcDbEntity
  8
Visible (ANSI)
100
AcDbLine
 10
0.7199935138709261
 20
1.12507358367251
 30
0.0
 11
0.7330749893228773
 21
1.117520990298929
 31
0.0
  0
LINE
  5
169
330
37
100
AcDbEntity
  8
Visible (ANSI)
100
AcDbLine
 10
0.4235992862061422
 20
1.046703387603475
 30
0.0
 11
0.410517810754191
 21
1.039150794229894
 31
0.0
  0
LINE
  5
16A
330
37
100
AcDbEntity
  8
Visible (ANSI)
100
AcDbLine
 10
0.6468171069997333
 20
0.8112479049189085
 30
0.0
 11
0.6598985824516844
 21
0.8036953115453272
 31
0.0
  0
ELLIPSE
  5
16B
330
37
100
AcDbEntity
  8
Visible (ANSI)
100
AcDbEllipse
 10
0.4412248093338677
 20
0.8241956824133442
 30
0.0
 11
0.02225
 21
-0.0385381304684075
 31
0.0
210
0.0
220
0.0
230
1.0
 40
0.5773502691896257
 41
2.389358557042403
 42
7.035419403726983
  0
ELLIPSE
  5
16C
330
37
100
AcDbEntity
  8
Visible (ANSI)
100
AcDbEllipse
 10
0.4412248093338677
 20
0.6625376073115162
 30
0.0
 11
0.02225
 21
-0.0385381304684076
 31
0.0
210
0.0
220
0.0
230
1.0
 40
0.5773502691896259
 41
2.389358557042396
 42
7.035419403726979
  0
ELLIPSE
  5
16D
330
37
100
AcDbEntity
  8
Visible (ANSI)
100
AcDbEllipse
 10
0.576982168411824
 20
0.7433625209014995
 30
0.0
 11
0.02225
 21
0.0385381304684075
 31
0.0
210
0.0
220
0.0
230
1.0
 40
0.5773502691896255
 41
2.389358557042376
 42
7.035419403727
  0
ELLIPSE
  5
16E
330
37
100
AcDbEntity
  8
Visible (ANSI)
100
AcDbEllipse
 10
0.5791034887553836
 20
0.7421377760301081
 30
0.0
 11
-0.0237499999999976
 21
-0.0411362066797623
 31
0.0
210
0.0
220
0.0
230
1.0
 40
0.5773502691896258
 41
0.0
 42
6.283185307179377
  0
ELLIPSE
  5
16F
330
37
100
AcDbEntity
  8
Visible (ANSI)
100
AcDbEllipse
 10
0.5791034887553836
 20
0.5804797009282799
 30
0.0
 11
-0.0237499999999976
 21
-0.0411362066797623
 31
0.0
210
0.0
220
0.0
230
1.0
 40
0.5773502691896258
 41
0.0
 42
6.283185307179377
  0
ELLIPSE
  5
170
330
37
100
AcDbEntity
  8
Visible (ANSI)
100
AcDbEllipse
 10
0.7544695419445776
 20
0.5600776351726512
 30
0.0
 11
-0.0237499999999976
 21
-0.0411362066797623
 31
0.0
210
0.0
220
0.0
230
1.0
 40
0.5773502691896258
 41
0.0
 42
6.283185307179377
  0
ELLIPSE
  5
171
330
37
100
AcDbEntity
  8
Visible (ANSI)
100
AcDbEllipse
 10
0.6858801841694828
 20
0.6347746615795083
 30
0.0
 11
-0.0249999999999974
 21
-0.0433012701892235
 31
0.0
210
0.0
220
0.0
230
1.0
 40
0.5773502691896257
 41
0.0
 42
6.283185307179379
  0
ELLIPSE
  5
172
330
37
100
AcDbEntity
  8
Visible (ANSI)
100
AcDbEllipse
 10
0.5798141669915006
 20
0.9050350298665856
 30
0.0
 11
-0.0249999999999974
 21
-0.0433012701892235
 31
0.0
210
0.0
220
0.0
230
1.0
 40
0.5773502691896257
 41
0.0
 42
6.283185307179379
  0
ELLIPSE
  5
173
330
37
100
AcDbEntity
  8
Visible (ANSI)
100
AcDbEllipse
 10
0.576982168411824
 20
0.5817044457996714
 30
0.0
 11
0.02225
 21
0.0385381304684075
 31
0.0
210
0.0
220
0.0
230
1.0
 40
0.5773502691896258
 41
2.38935855704237
 42
7.035419403727009
  0
ELLIPSE
  5
174
330
37
100
AcDbEntity
  8
Visible (ANSI)
100
AcDbEllipse
 10
0.5776928466479411
 20
0.906259774737977
 30
0.0
 11
0.0235000000000001
 21
0.0407031939778688
 31
0.0
210
0.0
220
0.0
230
1.0
 40
0.5773502691896258
 41
2.387620790840991
 42
7.037157169928388
  0
ELLIPSE
  5
175
330
37
100
AcDbEntity
  8
Visible (ANSI)
100
AcDbEllipse
 10
0.752348221601018
 20
0.5613023800440427
 30
0.0
 11
0.02225
 21
0.0385381304684075
 31
0.0
210
0.0
220
0.0
230
1.0
 40
0.5773502691896258
 41
2.389358557042363
 42
7.035419403727018
  0
ELLIPSE
  5
176
330
37
100
AcDbEntity
  8
Visible (ANSI)
100
AcDbEllipse
 10
0.683758863825923
 20
0.6359994064508994
 30
0.0
 11
0.0235000000000001
 21
0.0407031939778688
 31
0.0
210
0.0
220
0.0
230
1.0
 40
0.5773502691896258
 41
2.387620790840987
 42
7.037157169928383
  0
ELLIPSE
  5
177
330
37
100
AcDbEntity
  8
Visible (ANSI)
100
AcDbEllipse
 10
0.4391034889903079
 20
0.8229709375419526
 30
0.0
 11
0.02375
 21
-0.0411362066797609
 31
0.0
210
0.0
220
0.0
230
1.0
 40
0.5773502691896259
 41
0.0000000000000005
 42
6.283185307179586
  0
ELLIPSE
  5
178
330
37
100
AcDbEntity
  8
Visible (ANSI)
100
AcDbEllipse
 10
0.4391034889903079
 20
0.6613128624401247
 30
0.0
 11
0.02375
 21
-0.0411362066797609
 31
0.0
210
0.0
220
0.0
230
1.0
 40
0.5773502691896259
 41
0.0000000000000005
 42
6.283185307179586
  0
ELLIPSE
  5
179
330
37
100
AcDbEntity
  8
Visible (ANSI)
100
AcDbEllipse
 10
0.2488881933961962
 20
1.052004414433576
 30
0.0
 11
0.025
 21
-0.043301270189222
 31
0.0
210
0.0
220
0.0
230
1.0
 40
0.5773502691896259
 41
0.0000000000000011
 42
6.283185307179586
  0
ELLIPSE
  5
17A
330
37
100
AcDbEntity
  8
Visible (ANSI)
100
AcDbEllipse
 10
0.3323267935762088
 20
0.5449724484254883
 30
0.0
 11
0.025
 21
-0.043301270189222
 31
0.0
210
0.0
220
0.0
230
1.0
 40
0.5773502691896259
 41
0.0000000000000009
 42
6.283185307179586
  0
ELLIPSE
  5
17B
330
37
100
AcDbEntity
  8
Visible (ANSI)
100
AcDbEllipse
 10
0.4391034884246225
 20
0.4588299974837463
 30
0.0
 11
0.023
 21
-0.0398371685740842
 31
0.0
210
0.0
220
0.0
230
0.9999999999999998
 40
0.5773502691896257
 41
0.0000000000000007
 42
6.283185307179586
  0
ELLIPSE
  5
17C
330
37
100
AcDbEntity
  8
Visible (ANSI)
100
AcDbEllipse
 10
0.2686871832694194
 20
0.9213607973525773
 30
0.0
 11
0.023
 21
-0.0398371685740842
 31
0.0
210
0.0
220
0.0
230
1.0
 40
0.5773502691896259
 41
0.0
 42
6.283185307179585
  0
ELLIPSE
  5
17D
330
37
100
AcDbEntity
  8
Visible (ANSI)
100
AcDbEllipse
 10
0.2708085036129793
 20
0.9225855422239689
 30
0.0
 11
0.0215
 21
-0.0372390923627308
 31
0.0
210
0.0
220
0.0
230
1.0
 40
0.5773502691896259
 41
2.390496675344861
 42
7.034281285424513
  0
ELLIPSE
  5
17E
330
37
100
AcDbEntity
  8
Visible (ANSI)
100
AcDbEllipse
 10
0.2510095137397558
 20
1.053229159304967
 30
0.0
 11
0.0235
 21
-0.0407031939778686
 31
0.0
210
0.0
220
0.0
230
1.0
 40
0.5773502691896258
 41
2.387620790841017
 42
7.037157169928365
  0
ELLIPSE
  5
17F
330
37
100
AcDbEntity
  8
Visible (ANSI)
100
AcDbEllipse
 10
0.4412248087681822
 20
0.460054742355138
 30
0.0
 11
0.0215
 21
-0.0372390923627309
 31
0.0
210
0.0
220
0.0
230
1.0
 40
0.5773502691896257
 41
2.390496675344857
 42
7.034281285424523
  0
ELLIPSE
  5
180
330
37
100
AcDbEntity
  8
Visible (ANSI)
100
AcDbEllipse
 10
0.3344481139197684
 20
0.5461971932968801
 30
0.0
 11
0.0235000000000001
 21
-0.0407031939778687
 31
0.0
210
0.0
220
0.0
230
0.9999999999999998
 40
0.5773502691896258
 41
2.387620790841015
 42
7.037157169928362
  0
ELLIPSE
  5
181
330
37
100
AcDbEntity
  8
Visible (ANSI)
100
AcDbEllipse
 10
0.752348221601018
 20
1.007097102482551
 30
0.0
 11
0.02225
 21
0.0385381304684075
 31
0.0
210
0.0
220
0.0
230
0.9999999999999998
 40
0.5773502691896258
 41
2.389358557042385
 42
7.035419403726991
  0
ELLIPSE
  5
182
330
37
100
AcDbEntity
  8
Visible (ANSI)
100
AcDbEllipse
 10
0.7544695419445776
 20
1.005872357611159
 30
0.0
 11
-0.0237499999999976
 21
-0.0411362066797623
 31
0.0
210
0.0
220
0.0
230
1.0
 40
0.5773502691896258
 41
0.0
 42
6.283185307179377
  0
ELLIPSE
  5
183
330
37
100
AcDbEntity
  8
Visible (ANSI)
100
AcDbEllipse
 10
0.509103488872846
 20
1.219589988106393
 30
0.0
 11
-0.03175
 21
0.0
 31
0.0
210
0.0
220
0.0
230
1.0
 40
0.577350269189626
 41
2.402388268605571
 42
7.022389692163805
  0
ELLIPSE
  5
184
330
37
100
AcDbEntity
  8
Visible (ANSI)
100
AcDbEllipse
 10
0.509103488872846
 20
1.222039477849176
 30
0.0
 11
0.03475
 21
0.0000000000000021
 31
0.0
210
0.0
220
0.0
230
1.0
 40
0.577350269189626
 41
0.0
 42
6.283185307179381
  0
ELLIPSE
  5
185
330
37
100
AcDbEntity
  8
Visible (ANSI)
100
AcDbEllipse
 10
0.5091034888728459
 20
1.329103586618221
 30
0.0
 11
0.046
 21
0.0000000000000027
 31
0.0
210
0.0
220
0.0
230
1.0
 40
0.5773502691896258
 41
0.0
 42
6.283185307179381
  0
ELLIPSE
  5
186
330
37
100
AcDbEntity
  8
Visible (ANSI)
100
AcDbEllipse
 10
0.5091034888728459
 20
1.326654096875439
 30
0.0
 11
-0.043
 21
0.0
 31
0.0
210
0.0
220
0.0
230
1.0
 40
0.5773502691896259
 41
2.390496675344863
 42
7.034281285424516
  0
MTEXT
  5
187
330
37
100
AcDbEntity
  8
Symbol (ANSI)
100
AcDbMText
 10
1.772882408296335
 20
1.535076289355491
 30
0.0
 40
0.0240000002966153
 41
0.1887131300498181
 71
     1
 72
     1
  1
{5 of 6 (OMT)}
  7
Note Text (ANSI)
 73
     1
 44
1.0
1001
ACAD
1000
MTEXTBEGIN
1070
    73
1070
     1
1070
    44
1040
1.0
1070
    74
1070
     0
1000
MTEXTEND
  0
INSERT
  5
1A4
330
37
100
AcDbEntity
  8
Detail Boundary (ANSI)
100
AcDbBlockReference
  2
2dDetail1
 10
0.0
 20
0.0
 30
0.0
 41
0.2
 42
0.2
 43
0.2
  0
LINE
  5
1A5
330
37
100
AcDbEntity
  8
Break Line (ANSI)
100
AcDbLine
 10
1.117140719867382
 20
0.9210320159022465
 30
0.0
 11
1.097783650459454
 21
0.9938243026607109
 31
0.0
  0
LINE
  5
1A6
330
37
100
AcDbEntity
  8
Break Line (ANSI)
100
AcDbLine
 10
1.097783650459454
 20
0.9938243026607109
 30
0.0
 11
1.136576078647568
 21
1.057168947061359
 31
0.0
  0
LINE
  5
1A7
330
37
100
AcDbEntity
  8
Break Line (ANSI)
100
AcDbLine
 10
1.10239304973213
 20
0.8490524906004477
 30
0.0
 11
1.117140719867382
 21
0.9210320159022465
 31
0.0
  0
LINE
  5
1A8
330
37
100
AcDbEntity
  8
Break Line (ANSI)
100
AcDbLine
 10
1.142343320586834
 20
0.7869941891428698
 30
0.0
 11
1.10239304973213
 21
0.8490524906004477
 31
0.0
  0
LINE
  5
1A9
330
37
100
AcDbEntity
  8
Break Line (ANSI)
100
AcDbLine
 10
1.148629437494047
 20
0.7120428893217358
 30
0.0
 11
1.142343320586834
 21
0.7869941891428698
 31
0.0
  0
LINE
  5
1AA
330
37
100
AcDbEntity
  8
Break Line (ANSI)
100
AcDbLine
 10
1.166961738262738
 20
0.6516657513641638
 30
0.0
 11
1.148629437494047
 21
0.7120428893217358
 31
0.0
  0
LINE
  5
1AB
330
37
100
AcDbEntity
  8
Break Line (ANSI)
100
AcDbLine
 10
1.171556494267562
 20
0.6365329963060287
 30
0.0
 11
1.166961738262738
 21
0.6516657513641638
 31
0.0
  0
LINE
  5
1AC
330
37
100
AcDbEntity
  8
Break Line (ANSI)
100
AcDbLine
 10
1.155374627203292
 20
1.164980786400497
 30
0.0
 11
1.172700924682091
 21
1.204570744359942
 31
0.0
  0
LINE
  5
1AD
330
37
100
AcDbEntity
  8
Break Line (ANSI)
100
AcDbLine
 10
1.298930195678532
 20
0.5543931857525024
 30
0.0
 11
1.286594616638572
 21
0.5612318295976162
 31
0.0
  0
LINE
  5
1AE
330
37
100
AcDbEntity
  8
Break Line (ANSI)
100
AcDbLine
 10
1.286594616638572
 20
0.5612318295976168
 30
0.0
 11
1.233431571973416
 21
0.590704554551116
 31
0.0
  0
LINE
  5
1AF
330
37
100
AcDbEntity
  8
Break Line (ANSI)
100
AcDbLine
 10
1.172700924682091
 20
1.204570744359942
 30
0.0
 11
1.212364759462997
 21
1.276465926747528
 31
0.0
  0
LINE
  5
1B0
330
37
100
AcDbEntity
  8
Break Line (ANSI)
100
AcDbLine
 10
1.359933479800152
 20
0.5070538139088063
 30
0.0
 11
1.298930195678532
 21
0.5543931857525024
 31
0.0
  0
LINE
  5
1B1
330
37
100
AcDbEntity
  8
Break Line (ANSI)
100
AcDbLine
 10
1.212364759462997
 20
1.276465926747528
 30
0.0
 11
1.284271495055112
 21
1.313060460305247
 31
0.0
  0
LINE
  5
1B2
330
37
100
AcDbEntity
  8
Break Line (ANSI)
100
AcDbLine
 10
1.359666222227088
 20
1.33574450204392
 30
0.0
 11
1.428983272493182
 21
1.383955784800667
 31
0.0
  0
LINE
  5
1B3
330
37
100
AcDbEntity
  8
Break Line (ANSI)
100
AcDbLine
 10
1.428983272493182
 20
1.383955784800667
 30
0.0
 11
1.510609222961241
 21
1.374600132016121
 31
0.0
  0
LINE
  5
1B4
330
37
100
AcDbEntity
  8
Break Line (ANSI)
100
AcDbLine
 10
1.510609222961241
 20
1.374600132016121
 30
0.0
 11
1.59315694703379
 21
1.389183422685515
 31
0.0
  0
LINE
  5
1B5
330
37
100
AcDbEntity
  8
Break Line (ANSI)
100
AcDbLine
 10
1.59315694703379
 20
1.389183422685515
 30
0.0
 11
1.655710607307941
 21
1.319694792926261
 31
0.0
  0
LINE
  5
1B6
330
37
100
AcDbEntity
  8
Break Line (ANSI)
100
AcDbLine
 10
1.438572201800374
 20
0.512489767455774
 30
0.0
 11
1.393095665450563
 21
0.5093461718735121
 31
0.0
  0
LINE
  5
1B7
330
37
100
AcDbEntity
  8
Break Line (ANSI)
100
AcDbLine
 10
1.393095665450564
 20
0.5093461718735121
 30
0.0
 11
1.359933479800152
 21
0.5070538139088063
 31
0.0
  0
LINE
  5
1B8
330
37
100
AcDbEntity
  8
Break Line (ANSI)
100
AcDbLine
 10
1.655710607307941
 20
1.319694792926261
 30
0.0
 11
1.740948029163744
 21
1.31999053119956
 31
0.0
  0
LINE
  5
1B9
330
37
100
AcDbEntity
  8
Break Line (ANSI)
100
AcDbLine
 10
1.740948029163744
 20
1.31999053119956
 30
0.0
 11
1.754318419800029
 21
1.27422168841257
 31
0.0
  0
LINE
  5
1BA
330
37
100
AcDbEntity
  8
Break Line (ANSI)
100
AcDbLine
 10
1.754318419800029
 20
1.27422168841257
 30
0.0
 11
1.767915317429261
 21
1.227677478380719
 31
0.0
  0
LINE
  5
1BB
330
37
100
AcDbEntity
  8
Break Line (ANSI)
100
AcDbLine
 10
1.510609222960717
 20
0.4834788083480536
 30
0.0
 11
1.438572201800374
 21
0.512489767455774
 31
0.0
  0
LINE
  5
1BC
330
37
100
AcDbEntity
  8
Break Line (ANSI)
100
AcDbLine
 10
1.583484303755524
 20
0.5077368950872386
 30
0.0
 11
1.583056856696948
 21
0.5075946098546154
 31
0.0
  0
LINE
  5
1BD
330
37
100
AcDbEntity
  8
Break Line (ANSI)
100
AcDbLine
 10
1.583056856696948
 20
0.5075946098546154
 30
0.0
 11
1.510609222960717
 21
0.4834788083480536
 31
0.0
  0
LINE
  5
1BE
330
37
100
AcDbEntity
  8
Break Line (ANSI)
100
AcDbLine
 10
1.767915317429261
 20
1.227677478380719
 30
0.0
 11
1.874127195455707
 21
1.226059812548463
 31
0.0
  0
LINE
  5
1BF
330
37
100
AcDbEntity
  8
Break Line (ANSI)
100
AcDbLine
 10
1.66261219441034
 20
0.5034072841540028
 30
0.0
 11
1.583484303755524
 21
0.5077368950872386
 31
0.0
  0
LINE
  5
1C0
330
37
100
AcDbEntity
  8
Break Line (ANSI)
100
AcDbLine
 10
1.708151371813428
 20
0.5788789774526788
 30
0.0
 11
1.66261219441034
 21
0.5034072841540028
 31
0.0
  0
LINE
  5
1C1
330
37
100
AcDbEntity
  8
Break Line (ANSI)
100
AcDbLine
 10
1.7912432409891
 20
0.5865854167123099
 30
0.0
 11
1.708151371813428
 21
0.5788789774526788
 31
0.0
  0
LINE
  5
1C2
330
37
100
AcDbEntity
  8
Break Line (ANSI)
100
AcDbLine
 10
1.874127195455707
 20
1.226059812548463
 30
0.0
 11
1.899988136783979
 21
1.145840036614357
 31
0.0
  0
LINE
  5
1C3
330
37
100
AcDbEntity
  8
Break Line (ANSI)
100
AcDbLine
 10
1.834711307519845
 20
0.6490780762844066
 30
0.0
 11
1.7912432409891
 21
0.5865854167123099
 31
0.0
  0
LINE
  5
1C4
330
37
100
AcDbEntity
  8
Break Line (ANSI)
100
AcDbLine
 10
1.902433504401543
 20
0.6948121615367776
 30
0.0
 11
1.834711307519845
 21
0.6490780762844066
 31
0.0
  0
LINE
  5
1C5
330
37
100
AcDbEntity
  8
Break Line (ANSI)
100
AcDbLine
 10
1.899988136783979
 20
1.145840036614357
 30
0.0
 11
1.900241374727856
 21
1.113521371442779
 31
0.0
  0
LINE
  5
1C6
330
37
100
AcDbEntity
  8
Break Line (ANSI)
100
AcDbLine
 10
1.900241374727855
 20
1.113521371442778
 30
0.0
 11
1.900637316218513
 21
1.062990632375282
 31
0.0
  0
LINE
  5
1C7
330
37
100
AcDbEntity
  8
Break Line (ANSI)
100
AcDbLine
 10
1.900637316218513
 20
1.062990632375282
 30
0.0
 11
1.903588872506355
 21
1.039928116450492
 31
0.0
  0
LINE
  5
1C8
330
37
100
AcDbEntity
  8
Break Line (ANSI)
100
AcDbLine
 10
1.903588872506355
 20
1.039928116450492
 30
0.0
 11
1.909797025571462
 21
0.9914195958719297
 31
0.0
  0
LINE
  5
1C9
330
37
100
AcDbEntity
  8
Break Line (ANSI)
100
AcDbLine
 10
1.909797025571462
 20
0.9914195958719297
 30
0.0
 11
1.946146660516014
 21
0.9210320159020126
 31
0.0
  0
LINE
  5
1CA
330
37
100
AcDbEntity
  8
Break Line (ANSI)
100
AcDbLine
 10
1.922388746165387
 20
0.848424175857342
 30
0.0
 11
1.917278624969899
 21
0.796759200085183
 31
0.0
  0
LINE
  5
1CB
330
37
100
AcDbEntity
  8
Break Line (ANSI)
100
AcDbLine
 10
1.284271495055112
 20
1.313060460305247
 30
0.0
 11
1.323882413738179
 21
1.324978213262485
 31
0.0
  0
LINE
  5
1CC
330
37
100
AcDbEntity
  8
Break Line (ANSI)
100
AcDbLine
 10
1.323882413738179
 20
1.324978213262485
 30
0.0
 11
1.359666222227088
 21
1.33574450204392
 31
0.0
  0
LINE
  5
1CD
330
37
100
AcDbEntity
  8
Break Line (ANSI)
100
AcDbLine
 10
1.141800301098148
 20
1.13396394621937
 30
0.0
 11
1.155374627203294
 21
1.164980786400497
 31
0.0
  0
LINE
  5
1CE
330
37
100
AcDbEntity
  8
Break Line (ANSI)
100
AcDbLine
 10
1.136576078647568
 20
1.057168947061359
 30
0.0
 11
1.138525451175678
 21
1.085824323640553
 31
0.0
  0
LINE
  5
1CF
330
37
100
AcDbEntity
  8
Break Line (ANSI)
100
AcDbLine
 10
1.139581703434059
 20
1.101351015327274
 30
0.0
 11
1.138525451175678
 21
1.085824323640552
 31
0.0
  0
LINE
  5
1D0
330
37
100
AcDbEntity
  8
Break Line (ANSI)
100
AcDbLine
 10
1.139581703434059
 20
1.101351015327274
 30
0.0
 11
1.141800301098148
 21
1.13396394621937
 31
0.0
  0
LINE
  5
1D1
330
37
100
AcDbEntity
  8
Break Line (ANSI)
100
AcDbLine
 10
1.233431571973416
 20
0.5907045545511155
 30
0.0
 11
1.171556494267562
 21
0.6365329963060286
 31
0.0
  0
LINE
  5
1D2
330
37
100
AcDbEntity
  8
Break Line (ANSI)
100
AcDbLine
 10
1.915011861837755
 20
0.7738414926916969
 30
0.0
 11
1.905562051162996
 21
0.7144686993079726
 31
0.0
  0
LINE
  5
1D3
330
37
100
AcDbEntity
  8
Break Line (ANSI)
100
AcDbLine
 10
1.905562051162996
 20
0.7144686993079726
 30
0.0
 11
1.902433504401543
 21
0.6948121615367776
 31
0.0
  0
LINE
  5
1D4
330
37
100
AcDbEntity
  8
Break Line (ANSI)
100
AcDbLine
 10
1.917278624969899
 20
0.7967592000851825
 30
0.0
 11
1.915011861837755
 21
0.7738414926916969
 31
0.0
  0
LINE
  5
1D5
330
37
100
AcDbEntity
  8
Break Line (ANSI)
100
AcDbLine
 10
1.946146660516014
 20
0.9210320159020126
 30
0.0
 11
1.922388746165387
 21
0.848424175857342
 31
0.0
  0
ELLIPSE
  5
1D6
330
37
100
AcDbEntity
  8
Visible (ANSI)
100
AcDbEllipse
 10
1.229503466103677
 20
0.8313945941373567
 30
0.0
 11
-0.1393750000000047
 21
0.2414045813049203
 31
0.0
210
0.0
220
0.0
230
0.9999999999999998
 40
0.5773502691896255
 41
5.497787143782152
 42
5.977550140676794
  0
ELLIPSE
  5
1D7
330
37
100
AcDbEntity
  8
Visible (ANSI)
100
AcDbEllipse
 10
1.294910843363433
 20
0.8691575610052668
 30
0.0
 11
-0.1393750000000034
 21
0.241404581304918
 31
0.0
210
0.0
220
0.0
230
0.9999999999999998
 40
0.5773502691896257
 41
5.497787143782148
 42
6.283185307179578
  0
ELLIPSE
  5
1D8
330
37
100
AcDbEntity
  8
Visible (ANSI)
100
AcDbEllipse
 10
1.229503466103679
 20
0.8313945941373937
 30
0.0
 11
0.139375000000019
 21
-0.2414045813049451
 31
0.0
210
0.0
220
0.0
230
0.9999999999999998
 40
0.5773502691896257
 41
5.174906200079536
 42
5.497787143782112
  0
ELLIPSE
  5
1D9
330
37
100
AcDbEntity
  8
Visible (ANSI)
100
AcDbEllipse
 10
1.229503466103675
 20
0.8313945941373724
 30
0.0
 11
0.1856249999999769
 21
-0.321511931154977
 31
0.0
210
0.0
220
0.0
230
1.0
 40
0.5773502691896258
 41
2.356194490192665
 42
2.642469885152332
  0
LINE
  5
1DA
330
37
100
AcDbEntity
  8
Visible (ANSI)
100
AcDbLine
 10
1.505275110766428
 20
0.9753021165258777
 30
0.0
 11
1.583056856696948
 21
0.9303948045748523
 31
0.0
  0
LINE
  5
1DB
330
37
100
AcDbEntity
  8
Visible (ANSI)
100
AcDbLine
 10
1.583056856696948
 20
0.9303948045748523
 30
0.0
 11
1.583056856696948
 21
0.9939033341857113
 31
0.0
  0
LINE
  5
1DC
330
37
100
AcDbEntity
  8
Visible (ANSI)
100
AcDbLine
 10
1.229503466103674
 20
0.6037961722037615
 30
0.0
 11
1.393095665450563
 21
0.5093461718735121
 31
0.0
  0
LINE
  5
1DD
330
37
100
AcDbEntity
  8
Visible (ANSI)
100
AcDbLine
 10
1.905562051162996
 20
0.7144686993079726
 30
0.0
 11
1.583056856696948
 21
0.5282702384679471
 31
0.0
  0
LINE
  5
1DE
330
37
100
AcDbEntity
  8
Visible (ANSI)
100
AcDbLine
 10
1.583056856696948
 20
0.5282702384679471
 30
0.0
 11
1.583056856696948
 21
0.5075946098546154
 31
0.0
  0
LINE
  5
1DF
330
37
100
AcDbEntity
  8
Visible (ANSI)
100
AcDbLine
 10
1.583056856696948
 20
0.6037961722037615
 30
0.0
 11
1.517649479437193
 21
0.5660332053358538
 31
0.0
  0
LINE
  5
1E0
330
37
100
AcDbEntity
  8
Visible (ANSI)
100
AcDbLine
 10
1.583056856696948
 20
0.5282702384679471
 30
0.0
 11
1.517649479437193
 21
0.5660332053358538
 31
0.0
  0
LINE
  5
1E1
330
37
100
AcDbEntity
  8
Visible (ANSI)
100
AcDbLine
 10
1.517649479437193
 20
0.5660332053358538
 30
0.0
 11
1.517649479437193
 21
0.6415591390716693
 31
0.0
  0
LINE
  5
1E2
330
37
100
AcDbEntity
  8
Visible (ANSI)
100
AcDbLine
 10
1.583056856696948
 20
0.6037961722037615
 30
0.0
 11
1.917278624969899
 21
0.796759200085183
 31
0.0
  0
LINE
  5
1E3
330
37
100
AcDbEntity
  8
Visible (ANSI)
100
AcDbLine
 10
1.517649479437193
 20
0.6415591390716693
 30
0.0
 11
1.583056856696948
 21
0.6037961722037615
 31
0.0
  0
LINE
  5
1E4
330
37
100
AcDbEntity
  8
Visible (ANSI)
100
AcDbLine
 10
1.229503466103673
 20
1.134518949806783
 30
0.0
 11
1.505275110766427
 21
0.9753021165258767
 31
0.0
  0
LINE
  5
1E5
330
37
100
AcDbEntity
  8
Visible (ANSI)
100
AcDbLine
 10
1.505275110766427
 20
0.9753021165258767
 30
0.0
 11
1.505275110766427
 21
1.220251090804194
 31
0.0
  0
LINE
  5
1E6
330
37
100
AcDbEntity
  8
Visible (ANSI)
100
AcDbLine
 10
1.323882413738179
 20
1.324978213262485
 30
0.0
 11
1.505275110766427
 21
1.220251090804194
 31
0.0
  0
LINE
  5
1E7
330
37
100
AcDbEntity
  8
Visible (ANSI)
100
AcDbLine
 10
1.754318419800029
 20
1.27422168841257
 30
0.0
 11
1.660838602627468
 21
1.220251090804194
 31
0.0
  0
LINE
  5
1E8
330
37
100
AcDbEntity
  8
Visible (ANSI)
100
AcDbLine
 10
1.660838602627468
 20
1.220251090804194
 30
0.0
 11
1.660838602627468
 21
0.9753021165258772
 31
0.0
  0
LINE
  5
1E9
330
37
100
AcDbEntity
  8
Visible (ANSI)
100
AcDbLine
 10
1.660838602627468
 20
0.9753021165258772
 30
0.0
 11
1.900241374727856
 21
1.113521371442779
 31
0.0
  0
ELLIPSE
  5
1EA
330
37
100
AcDbEntity
  8
Visible (ANSI)
100
AcDbEllipse
 10
1.583056856696947
 20
1.175343778853169
 30
0.0
 11
0.1100000000000006
 21
-0.0000000000000065
 31
0.0
210
0.0
220
0.0
230
1.0
 40
0.5773502691896258
 41
0.7853981633976952
 42
2.356194490192585
  0
LINE
  5
1EB
330
37
100
AcDbEntity
  8
Visible (ANSI)
100
AcDbLine
 10
1.660838602627468
 20
0.9753021165258767
 30
0.0
 11
1.583056856696948
 21
0.9303948045748523
 31
0.0
  0
ELLIPSE
  5
1EC
330
37
100
AcDbEntity
  8
Visible (ANSI)
100
AcDbEllipse
 10
1.62548326356814
 20
0.8936524584331046
 30
0.0
 11
-0.0087500000000001
 21
-0.0151554445662278
 31
0.0
210
0.0
220
0.0
230
0.9999999999999998
 40
0.577350269189626
 41
5.497787143782129
 42
7.068583470577034
  0
LINE
  5
1ED
330
37
100
AcDbEntity
  8
Visible (ANSI)
100
AcDbLine
 10
1.613108894897376
 20
0.8865081133499874
 30
0.0
 11
1.613108894897376
 21
0.9056957830017889
 31
0.0
  0
LINE
  5
1EE
330
37
100
AcDbEntity
  8
Visible (ANSI)
100
AcDbLine
 10
1.583056856696947
 20
0.9230463353465033
 30
0.0
 11
1.613108894897376
 21
0.9056957830017889
 31
0.0
  0
LINE
  5
1EF
330
37
100
AcDbEntity
  8
Visible (ANSI)
100
AcDbLine
 10
1.613108894897376
 20
0.9056957830017889
 30
0.0
 11
1.583056856696947
 21
0.8883452306570738
 31
0.0
  0
LINE
  5
1F0
330
37
100
AcDbEntity
  8
Visible (ANSI)
100
AcDbLine
 10
1.553004818496518
 20
0.9056957830017882
 30
0.0
 11
1.583056856696947
 21
0.9230463353465033
 31
0.0
  0
LINE
  5
1F1
330
37
100
AcDbEntity
  8
Visible (ANSI)
100
AcDbLine
 10
1.583056856696947
 20
0.8883452306570738
 30
0.0
 11
1.553004818496518
 21
0.9056957830017882
 31
0.0
  0
LINE
  5
1F2
330
37
100
AcDbEntity
  8
Visible (ANSI)
100
AcDbLine
 10
1.553004818496518
 20
0.9056957830017882
 30
0.0
 11
1.553004818496518
 21
0.8865081133499867
 31
0.0
  0
ELLIPSE
  5
1F3
330
37
100
AcDbEntity
  8
Visible (ANSI)
100
AcDbEllipse
 10
1.540630449825754
 20
0.8936524584331033
 30
0.0
 11
0.00875
 21
-0.0151554445662277
 31
0.0
210
0.0
220
0.0
230
0.9999999999999998
 40
0.5773502691896257
 41
5.497787143782115
 42
7.06858347057703
  0
LINE
  5
1F4
330
37
100
AcDbEntity
  8
Visible (ANSI)
100
AcDbLine
 10
1.540630449825754
 20
0.8793637682668689
 30
0.0
 11
1.229503466103673
 21
1.058993016070968
 31
0.0
  0
LINE
  5
1F5
330
37
100
AcDbEntity
  8
Visible (ANSI)
100
AcDbLine
 10
1.903588872506355
 20
1.039928116450492
 30
0.0
 11
1.62548326356814
 21
0.87936376826687
 31
0.0
  0
ELLIPSE
  5
1F6
330
37
100
AcDbEntity
  8
Visible (ANSI)
100
AcDbEllipse
 10
1.583056856696947
 20
0.9303948045748523
 30
0.0
 11
-0.1100000000000003
 21
-0.0000000000000066
 31
0.0
210
0.0
220
0.0
230
1.0
 40
0.5773502691896259
 41
3.926990816987004
 42
5.497787143781896
  0
LINE
  5
1F7
330
37
100
AcDbEntity
  8
Visible (ANSI)
100
AcDbLine
 10
1.583056856696947
 20
0.8883452306570738
 30
0.0
 11
1.583056856696948
 21
0.6037961722037615
 31
0.0
  0
LINE
  5
1F8
330
37
100
AcDbEntity
  8
Visible (ANSI)
100
AcDbLine
 10
1.15553584336343
 20
1.110562142310186
 30
0.0
 11
1.139581703434059
 21
1.101351015327274
 31
0.0
  0
MTEXT
  5
1F9
330
37
100
AcDbEntity
  8
Symbol (ANSI)
100
AcDbMText
 10
1.488741065400335
 20
0.2587417593472668
 30
0.0
 40
0.0359999992716031
 41
0.0
 71
     7
 72
     1
  1
DETAIL  G
  7
Text Style30
 73
     1
 44
1.0
1001
ACAD
1000
MTEXTBEGIN
1070
    73
1070
     1
1070
    44
1040
1.0
1070
    74
1070
     0
1000
MTEXTEND
  0
MTEXT
  5
1FA
330
37
100
AcDbEntity
  8
Symbol (ANSI)
100
AcDbMText
 10
1.457747476134256
 20
0.1994103624104732
 30
0.0
 40
0.0359999992716031
 41
0.0
 71
     7
 72
     1
  1
SCALE 25 : 1
  7
Text Style30
 73
     1
 44
1.0
1001
ACAD
1000
MTEXTBEGIN
1070
    73
1070
     1
1070
    44
1040
1.0
1070
    74
1070
     0
1000
MTEXTEND
  0
MTEXT
  5
1FB
102
{ACAD_REACTORS
330
1FC
102
}
330
37
100
AcDbEntity
  8
Symbol (ANSI)
100
AcDbMText
 10
1.220006899321532
 20
0.330957348678238
 30
0.0
 40
0.031199999681608
 41
0.5399066444457047
 71
     3
 72
     1
  1
{\fTahoma|b0|i0;\H0.0312;TUNING STUB ZERO POINT }
  7
Note Text (ANSI)
 73
     1
 44
1.0
1001
ACAD
1000
MTEXTBEGIN
1070
    73
1070
     1
1070
    44
1040
1.0
1070
    74
1070
     0
1000
MTEXTEND
  0
LEADER
  5
1FC
330
37
100
AcDbEntity
  8
Symbol (ANSI)
100
AcDbLeader
  3
Default (ANSI)$7
 73
     0
 40
0.0324991269308261
 41
0.526607387508395
 76
     4
 10
1.583056856696946
 20
0.8883452306570752
 30
0.0
 10
1.297514663053806
 20
0.3937716435627116
 30
0.0
 10
1.239691938691611
 20
0.3189573485299304
 30
0.0
 10
1.226306111919958
 20
0.3189573485299304
 30
0.0
340
1FB
213
0.0
223
-0.0120000001483076
233
0.0
1001
ACAD
1000
DSTYLE
1002
{
1070
    77
1070
     0
1002
}
  0
ENDSEC
  0
SECTION
  2
OBJECTS
  0
DICTIONARY
  5
C
330
0
100
AcDbDictionary
281
     1
  3
ACAD_COLOR
350
30
  3
ACAD_GROUP
350
D
  3
ACAD_LAYOUT
350
2F
  3
ACAD_MATERIAL
350
10
  3
ACAD_MLINESTYLE
350
2C
  3
ACAD_PLOTSETTINGS
350
2E
  3
ACAD_PLOTSTYLENAME
350
E
  3
ACAD_TABLESTYLE
350
31
  3
ACAD_VISUALSTYLE
350
14
  3
AcDbVariableDictionary
350
1FD
  3
DWGPROPS
350
203
  0
DICTIONARY
  5
30
102
{ACAD_REACTORS
330
C
102
}
330
C
100
AcDbDictionary
281
     1
  0
DICTIONARY
  5
D
102
{ACAD_REACTORS
330
C
102
}
330
C
100
AcDbDictionary
281
     1
  0
DICTIONARY
  5
2F
102
{ACAD_REACTORS
330
C
102
}
330
C
100
AcDbDictionary
281
     1
  3
Layout1
350
36
  3
Layout2
350
3E
  3
Model
350
3A
  0
DICTIONARY
  5
10
102
{ACAD_REACTORS
330
C
102
}
330
C
100
AcDbDictionary
281
     1
  3
ByBlock
350
12
  3
ByLayer
350
11
  3
Global
350
13
  0
DICTIONARY
  5
2C
102
{ACAD_REACTORS
330
C
102
}
330
C
100
AcDbDictionary
281
     1
  3
Standard
350
2D
  0
DICTIONARY
  5
2E
102
{ACAD_REACTORS
330
C
102
}
330
C
100
AcDbDictionary
281
     1
  0
ACDBDICTIONARYWDFLT
  5
E
102
{ACAD_REACTORS
330
C
102
}
330
C
100
AcDbDictionary
281
     1
  3
Normal
350
F
100
AcDbDictionaryWithDefault
340
F
  0
DICTIONARY
  5
31
102
{ACAD_REACTORS
330
C
102
}
330
C
100
AcDbDictionary
281
     1
  3
Standard
350
32
  0
DICTIONARY
  5
14
102
{ACAD_REACTORS
330
C
102
}
330
C
100
AcDbDictionary
281
     1
  3
2dWireframe
350
1A
  3
3D Hidden
350
1C
  3
3dWireframe
350
1B
  3
Basic
350
19
  3
Brighten
350
20
  3
ColorChange
350
24
  3
Conceptual
350
1D
  3
Dim
350
1F
  3
Facepattern
350
23
  3
Flat
350
15
  3
FlatWithEdges
350
16
  3
Gouraud
350
17
  3
GouraudWithEdges
350
18
  3
Linepattern
350
22
  3
Realistic
350
1E
  3
Thicken
350
21
  0
DICTIONARY
  5
1FD
102
{ACAD_REACTORS
330
C
102
}
330
C
100
AcDbDictionary
281
     1
  3
CTABLESTYLE
350
1FE
  3
DIMASSOC
350
202
  3
HIDETEXT
350
201
  3
INDEXCTL
350
200
  3
SORTENTS
350
1FF
  0
XRECORD
  5
203
102
{ACAD_REACTORS
330
C
102
}
330
C
100
AcDbXrecord
280
     1
  1
DWGPROPS COOKIE
  2
WAVEGUIDE ORTHOMODE TRANSDUCER
  3

  4
Da Chow
  6

  7

  8

  9

300
Manager=
301
Company=RADIO ASTRONOMY LABORATORY                                                UNIVERSITY OF CALIFORNIA-BERKELEY                        601 CAMPBELL HALL BERKELEY,CA 94720
302
Category=
303
Part Number=OMT
304
Description=
305
Project=
306
Designer=Da Chow
307
Engineer=
308
Authority=
309
Cost Center=
 40
0.0000282060185185
 41
2454846.696810799
 42
2454846.696810799
  1

 90
       17
300
Vendor=
300
User Status=
300
Design Status=WorkInProgress
300
Checked by=
300
Date Checked=01/14/2009
300
Engr Approved by=
300
Mfg Approved by=
  0
LAYOUT
  5
36
102
{ACAD_XDICTIONARY
360
20C
102
}
102
{ACAD_REACTORS
330
2F
102
}
330
2F
100
AcDbPlotSettings
  1

  2

  4

  6

 40
0.0
 41
0.0
 42
0.0
 43
0.0
 44
0.0
 45
0.0
 46
0.0
 47
0.0
 48
0.0
 49
0.0
140
0.0
141
0.0
142
1.0
143
1.0
 70
   688
 72
     0
 73
     0
 74
     5
  7

 75
    16
147
1.0
148
0.0
149
0.0
100
AcDbLayout
  1
Layout1
 70
     1
 71
     1
 10
0.0
 20
0.0
 11
12.0
 21
9.0
 12
0.0
 22
0.0
 32
0.0
 14
0.0
 24
0.0
 34
0.0
 15
0.0
 25
0.0
 35
0.0
146
0.0
 13
0.0
 23
0.0
 33
0.0
 16
1.0
 26
0.0
 36
0.0
 17
0.0
 27
1.0
 37
0.0
 76
     0
330
33
  0
LAYOUT
  5
3E
102
{ACAD_XDICTIONARY
360
210
102
}
102
{ACAD_REACTORS
330
2F
102
}
330
2F
100
AcDbPlotSettings
  1

  2

  4

  6

 40
0.0
 41
0.0
 42
0.0
 43
0.0
 44
0.0
 45
0.0
 46
0.0
 47
0.0
 48
0.0
 49
0.0
140
0.0
141
0.0
142
1.0
143
1.0
 70
   688
 72
     0
 73
     0
 74
     5
  7

 75
    16
147
1.0
148
0.0
149
0.0
100
AcDbLayout
  1
Layout2
 70
     1
 71
     2
 10
0.0
 20
0.0
 11
12.0
 21
9.0
 12
0.0
 22
0.0
 32
0.0
 14
0.0
 24
0.0
 34
0.0
 15
0.0
 25
0.0
 35
0.0
146
0.0
 13
0.0
 23
0.0
 33
0.0
 16
1.0
 26
0.0
 36
0.0
 17
0.0
 27
1.0
 37
0.0
 76
     0
330
3B
  0
LAYOUT
  5
3A
102
{ACAD_XDICTIONARY
360
20E
102
}
102
{ACAD_REACTORS
330
2F
102
}
330
2F
100
AcDbPlotSettings
  1

  2

  4

  6

 40
0.0
 41
0.0
 42
0.0
 43
0.0
 44
0.0
 45
0.0
 46
0.0
 47
0.0
 48
0.0
 49
0.0
140
0.0
141
0.0
142
1.0
143
1.0
 70
  1712
 72
     0
 73
     0
 74
     0
  7

 75
     0
147
1.0
148
0.0
149
0.0
100
AcDbLayout
  1
Model
 70
     1
 71
     0
 10
0.0
 20
0.0
 11
12.0
 21
9.0
 12
0.0
 22
0.0
 32
0.0
 14
0.0
 24
0.0
 34
0.0
 15
0.0
 25
0.0
 35
0.0
146
0.0
 13
0.0
 23
0.0
 33
0.0
 16
1.0
 26
0.0
 36
0.0
 17
0.0
 27
1.0
 37
0.0
 76
     0
330
37
  0
MATERIAL
  5
12
102
{ACAD_XDICTIONARY
360
206
102
}
102
{ACAD_REACTORS
330
10
102
}
330
10
100
AcDbMaterial
  1
ByBlock
  0
MATERIAL
  5
11
102
{ACAD_XDICTIONARY
360
204
102
}
102
{ACAD_REACTORS
330
10
102
}
330
10
100
AcDbMaterial
  1
ByLayer
  0
MATERIAL
  5
13
102
{ACAD_XDICTIONARY
360
208
102
}
102
{ACAD_REACTORS
330
10
102
}
330
10
100
AcDbMaterial
  1
Global
  0
MLINESTYLE
  5
2D
102
{ACAD_REACTORS
330
2C
102
}
330
2C
100
AcDbMlineStyle
  2
STANDARD
 70
     0
  3

 62
   256
 51
90.0
 52
90.0
 71
     2
 49
0.5
 62
   256
  6
BYLAYER
 49
-0.5
 62
   256
  6
BYLAYER
  0
ACDBPLACEHOLDER
  5
F
102
{ACAD_REACTORS
330
E
102
}
330
E
  0
TABLESTYLE
  5
32
102
{ACAD_XDICTIONARY
360
20A
102
}
102
{ACAD_REACTORS
330
31
102
}
330
31
100
AcDbTableStyle
  3
Standard
 70
     0
 71
     0
 40
0.06
 41
0.06
280
     0
281
     0
  7
Standard
140
0.18
170
     2
 62
     0
 63
     7
283
     0
274
    -2
284
     1
 64
     0
275
    -2
285
     1
 65
     0
276
    -2
286
     1
 66
     0
277
    -2
287
     1
 67
     0
278
    -2
288
     1
 68
     0
279
    -2
289
     1
 69
     0
  7
Standard
140
0.25
170
     5
 62
     0
 63
     7
283
     0
274
    -2
284
     1
 64
     0
275
    -2
285
     1
 65
     0
276
    -2
286
     1
 66
     0
277
    -2
287
     1
 67
     0
278
    -2
288
     1
 68
     0
279
    -2
289
     1
 69
     0
  7
Standard
140
0.18
170
     5
 62
     0
 63
     7
283
     0
274
    -2
284
     1
 64
     0
275
    -2
285
     1
 65
     0
276
    -2
286
     1
 66
     0
277
    -2
287
     1
 67
     0
278
    -2
288
     1
 68
     0
279
    -2
289
     1
 69
     0
  0
VISUALSTYLE
  5
1A
102
{ACAD_REACTORS
330
14
102
}
330
14
100
AcDbVisualStyle
  2
2dWireframe
 70
     4
 71
     0
 72
     2
 73
     0
 90
        0
 40
-0.6
 41
-30.0
 62
     5
 63
     7
 74
     1
 91
        4
 64
     7
 65
   257
 75
     1
175
     1
 42
1.0
 92
        0
 66
   257
 43
1.0
 76
     1
 77
     6
 78
     2
 67
     7
 79
     5
170
     0
171
     0
290
     0
174
     0
 93
        1
 44
0.0
173
     0
291
     0
 45
0.0
1001
ACAD
1000
AcDbSavedByObjectVersion
1070
     0
  0
VISUALSTYLE
  5
1C
102
{ACAD_REACTORS
330
14
102
}
330
14
100
AcDbVisualStyle
  2
3D Hidden
 70
     6
 71
     1
 72
     2
 73
     2
 90
        0
 40
-0.6
 41
-30.0
 62
     5
 63
     7
 74
     2
 91
        2
 64
     7
 65
   257
 75
     2
175
     1
 42
40.0
 92
        0
 66
   257
 43
1.0
 76
     1
 77
     6
 78
     2
 67
     7
 79
     3
170
     0
171
     0
290
     0
174
     0
 93
        1
 44
0.0
173
     0
291
     0
 45
0.0
1001
ACAD
1000
AcDbSavedByObjectVersion
1070
     0
  0
VISUALSTYLE
  5
1B
102
{ACAD_REACTORS
330
14
102
}
330
14
100
AcDbVisualStyle
  2
3dWireframe
 70
     5
 71
     0
 72
     2
 73
     0
 90
        0
 40
-0.6
 41
-30.0
 62
     5
 63
     7
 74
     1
 91
        4
 64
     7
 65
   257
 75
     1
175
     1
 42
1.0
 92
        0
 66
   257
 43
1.0
 76
     1
 77
     6
 78
     2
 67
     7
 79
     5
170
     0
171
     0
290
     0
174
     0
 93
        1
 44
0.0
173
     0
291
     0
 45
0.0
1001
ACAD
1000
AcDbSavedByObjectVersion
1070
     0
  0
VISUALSTYLE
  5
19
102
{ACAD_REACTORS
330
14
102
}
330
14
100
AcDbVisualStyle
  2
Basic
 70
     7
 71
     1
 72
     0
 73
     1
 90
        0
 40
-0.6
 41
-30.0
 62
     5
 63
     7
 74
     0
 91
        4
 64
     7
 65
   257
 75
     1
175
     1
 42
1.0
 92
        8
 66
     7
 43
1.0
 76
     1
 77
     6
 78
     2
 67
     7
 79
     5
170
     0
171
     0
290
     0
174
     0
 93
        1
 44
0.0
173
     0
291
     1
 45
0.0
1001
ACAD
1000
AcDbSavedByObjectVersion
1070
     0
  0
VISUALSTYLE
  5
20
102
{ACAD_REACTORS
330
14
102
}
330
14
100
AcDbVisualStyle
  2
Brighten
 70
    12
 71
     2
 72
     2
 73
     0
 90
        0
 40
-0.6
 41
-30.0
 62
     5
 63
     7
 74
     1
 91
        4
 64
     7
 65
   257
 75
     1
175
     1
 42
1.0
 92
        8
 66
     7
 43
1.0
 76
     1
 77
     6
 78
     2
 67
     7
 79
     5
170
     0
171
     0
290
     0
174
     0
 93
        1
 44
50.0
173
     0
291
     1
 45
0.0
1001
ACAD
1000
AcDbSavedByObjectVersion
1070
     0
  0
VISUALSTYLE
  5
24
102
{ACAD_REACTORS
330
14
102
}
330
14
100
AcDbVisualStyle
  2
ColorChange
 70
    16
 71
     2
 72
     2
 73
     3
 90
        0
 40
-0.6
 41
-30.0
 62
     5
 63
     8
 74
     1
 91
        4
 64
     7
 65
   257
 75
     1
175
     1
 42
1.0
 92
        8
 66
     8
 43
1.0
 76
     1
 77
     6
 78
     2
 67
     7
 79
     5
170
     0
171
     0
290
     0
174
     0
 93
        1
 44
0.0
173
     0
291
     1
 45
0.0
1001
ACAD
1000
AcDbSavedByObjectVersion
1070
     0
  0
VISUALSTYLE
  5
1D
102
{ACAD_REACTORS
330
14
102
}
330
14
100
AcDbVisualStyle
  2
Conceptual
 70
     9
 71
     3
 72
     2
 73
     0
 90
        0
 40
-0.6
 41
-30.0
 62
     5
 63
     7
 74
     2
 91
        2
 64
     7
 65
   257
 75
     1
175
     1
 42
40.0
 92
        8
 66
     7
 43
1.0
 76
     1
 77
     6
 78
     2
 67
     7
 79
     3
170
     0
171
     0
290
     0
174
     0
 93
        1
 44
0.0
173
     0
291
     0
 45
0.0
1001
ACAD
1000
AcDbSavedByObjectVersion
1070
     0
  0
VISUALSTYLE
  5
1F
102
{ACAD_REACTORS
330
14
102
}
330
14
100
AcDbVisualStyle
  2
Dim
 70
    11
 71
     2
 72
     2
 73
     0
 90
        0
 40
-0.6
 41
-30.0
 62
     5
 63
     7
 74
     1
 91
        4
 64
     7
 65
   257
 75
     1
175
     1
 42
1.0
 92
        8
 66
     7
 43
1.0
 76
     1
 77
     6
 78
     2
 67
     7
 79
     5
170
     0
171
     0
290
     0
174
     0
 93
        1
 44
-50.0
173
     0
291
     1
 45
0.0
1001
ACAD
1000
AcDbSavedByObjectVersion
1070
     0
  0
VISUALSTYLE
  5
23
102
{ACAD_REACTORS
330
14
102
}
330
14
100
AcDbVisualStyle
  2
Facepattern
 70
    15
 71
     2
 72
     2
 73
     0
 90
        0
 40
-0.6
 41
-30.0
 62
     5
 63
     7
 74
     1
 91
        4
 64
     7
 65
   257
 75
     1
175
     1
 42
1.0
 92
        8
 66
     7
 43
1.0
 76
     1
 77
     6
 78
     2
 67
     7
 79
     5
170
     0
171
     0
290
     0
174
     0
 93
        1
 44
0.0
173
     0
291
     1
 45
0.0
1001
ACAD
1000
AcDbSavedByObjectVersion
1070
     0
  0
VISUALSTYLE
  5
15
102
{ACAD_REACTORS
330
14
102
}
330
14
100
AcDbVisualStyle
  2
Flat
 70
     0
 71
     2
 72
     1
 73
     1
 90
        2
 40
-0.6
 41
30.0
 62
     5
 63
     7
 74
     0
 91
        4
 64
     7
 65
   257
 75
     1
175
     1
 42
1.0
 92
        8
 66
     7
 43
1.0
 76
     1
 77
     6
 78
     2
 67
     7
 79
     5
170
     0
171
     0
290
     0
174
     0
 93
       13
 44
0.0
173
     0
291
     1
 45
0.0
1001
ACAD
1000
AcDbSavedByObjectVersion
1070
     0
  0
VISUALSTYLE
  5
16
102
{ACAD_REACTORS
330
14
102
}
330
14
100
AcDbVisualStyle
  2
FlatWithEdges
 70
     1
 71
     2
 72
     1
 73
     1
 90
        2
 40
-0.6
 41
30.0
 62
     5
 63
     7
 74
     1
 91
        4
 64
     7
 65
   257
 75
     1
175
     1
 42
1.0
 92
        0
 66
   257
 43
1.0
 76
     1
 77
     6
 78
     2
 67
     7
 79
     5
170
     0
171
     0
290
     0
174
     0
 93
       13
 44
0.0
173
     0
291
     1
 45
0.0
1001
ACAD
1000
AcDbSavedByObjectVersion
1070
     0
  0
VISUALSTYLE
  5
17
102
{ACAD_REACTORS
330
14
102
}
330
14
100
AcDbVisualStyle
  2
Gouraud
 70
     2
 71
     2
 72
     2
 73
     1
 90
        2
 40
-0.6
 41
30.0
 62
     5
 63
     7
 74
     0
 91
        4
 64
     7
 65
   257
 75
     1
175
     1
 42
1.0
 92
        0
 66
     7
 43
1.0
 76
     1
 77
     6
 78
     2
 67
     7
 79
     5
170
     0
171
     0
290
     0
174
     0
 93
       13
 44
0.0
173
     0
291
     1
 45
0.0
1001
ACAD
1000
AcDbSavedByObjectVersion
1070
     0
  0
VISUALSTYLE
  5
18
102
{ACAD_REACTORS
330
14
102
}
330
14
100
AcDbVisualStyle
  2
GouraudWithEdges
 70
     3
 71
     2
 72
     2
 73
     1
 90
        2
 40
-0.6
 41
30.0
 62
     5
 63
     7
 74
     1
 91
        4
 64
     7
 65
   257
 75
     1
175
     1
 42
1.0
 92
        0
 66
   257
 43
1.0
 76
     1
 77
     6
 78
     2
 67
     7
 79
     5
170
     0
171
     0
290
     0
174
     0
 93
       13
 44
0.0
173
     0
291
     1
 45
0.0
1001
ACAD
1000
AcDbSavedByObjectVersion
1070
     0
  0
VISUALSTYLE
  5
22
102
{ACAD_REACTORS
330
14
102
}
330
14
100
AcDbVisualStyle
  2
Linepattern
 70
    14
 71
     2
 72
     2
 73
     0
 90
        0
 40
-0.6
 41
-30.0
 62
     5
 63
     7
 74
     1
 91
        4
 64
     7
 65
   257
 75
     7
175
     7
 42
1.0
 92
        8
 66
     7
 43
1.0
 76
     1
 77
     6
 78
     2
 67
     7
 79
     5
170
     0
171
     0
290
     0
174
     0
 93
        1
 44
0.0
173
     0
291
     1
 45
0.0
1001
ACAD
1000
AcDbSavedByObjectVersion
1070
     0
  0
VISUALSTYLE
  5
1E
102
{ACAD_REACTORS
330
14
102
}
330
14
100
AcDbVisualStyle
  2
Realistic
 70
     8
 71
     2
 72
     2
 73
     0
 90
        0
 40
-0.6
 41
-30.0
 62
     5
 63
     7
 74
     1
 91
        0
 64
     7
 65
   257
 75
     1
175
     1
 42
1.0
 92
        8
 66
     8
 43
1.0
 76
     1
 77
     6
 78
     2
 67
     7
 79
     5
170
     0
171
     0
290
     0
174
     0
 93
       13
 44
0.0
173
     0
291
     0
 45
0.0
1001
ACAD
1000
AcDbSavedByObjectVersion
1070
     0
  0
VISUALSTYLE
  5
21
102
{ACAD_REACTORS
330
14
102
}
330
14
100
AcDbVisualStyle
  2
Thicken
 70
    13
 71
     2
 72
     2
 73
     0
 90
        0
 40
-0.6
 41
-30.0
 62
     5
 63
     7
 74
     1
 91
        4
 64
     7
 65
   257
 75
     1
175
     1
 42
1.0
 92
       12
 66
     7
 43
1.0
 76
     1
 77
     6
 78
     2
 67
     7
 79
     5
170
     0
171
     0
290
     0
174
     0
 93
        1
 44
0.0
173
     0
291
     1
 45
0.0
1001
ACAD
1000
AcDbSavedByObjectVersion
1070
     0
  0
DICTIONARYVAR
  5
1FE
102
{ACAD_REACTORS
330
1FD
102
}
330
1FD
100
DictionaryVariables
280
     0
  1
STANDARD
  0
DICTIONARYVAR
  5
202
102
{ACAD_REACTORS
330
1FD
102
}
330
1FD
100
DictionaryVariables
280
     0
  1
1
  0
DICTIONARYVAR
  5
201
102
{ACAD_REACTORS
330
1FD
102
}
330
1FD
100
DictionaryVariables
280
     0
  1
1
  0
DICTIONARYVAR
  5
200
102
{ACAD_REACTORS
330
1FD
102
}
330
1FD
100
DictionaryVariables
280
     0
  1
0
  0
DICTIONARYVAR
  5
1FF
102
{ACAD_REACTORS
330
1FD
102
}
330
1FD
100
DictionaryVariables
280
     0
  1
127
  0
DICTIONARY
  5
20C
330
36
100
AcDbDictionary
280
     1
281
     1
  3
ACAD_XREC_ROUNDTRIP
360
20D
  0
DICTIONARY
  5
210
330
3E
100
AcDbDictionary
280
     1
281
     1
  3
ACAD_XREC_ROUNDTRIP
360
211
  0
DICTIONARY
  5
20E
330
3A
100
AcDbDictionary
280
     1
281
     1
  3
ACAD_XREC_ROUNDTRIP
360
20F
  0
DICTIONARY
  5
206
330
12
100
AcDbDictionary
280
     1
281
     1
  3
ACAD_XREC_ROUNDTRIP
360
207
  0
DICTIONARY
  5
204
330
11
100
AcDbDictionary
280
     1
281
     1
  3
ACAD_XREC_ROUNDTRIP
360
205
  0
DICTIONARY
  5
208
330
13
100
AcDbDictionary
280
     1
281
     1
  3
ACAD_XREC_ROUNDTRIP
360
209
  0
DICTIONARY
  5
20A
330
32
100
AcDbDictionary
280
     1
281
     1
  3
ACAD_XREC_ROUNDTRIP
360
20B
  0
XRECORD
  5
20D
102
{ACAD_REACTORS
330
20C
102
}
330
20C
100
AcDbXrecord
280
     1
102
SHADEPLOT
 70
     0
102
SHADEPLOTRESLEVEL
 70
     2
102
SHADEPLOTCUSTOMDPI
 70
   300
  0
XRECORD
  5
211
102
{ACAD_REACTORS
330
210
102
}
330
210
100
AcDbXrecord
280
     1
102
SHADEPLOT
 70
     0
102
SHADEPLOTRESLEVEL
 70
     2
102
SHADEPLOTCUSTOMDPI
 70
   300
  0
XRECORD
  5
20F
102
{ACAD_REACTORS
330
20E
102
}
330
20E
100
AcDbXrecord
280
     1
102
SHADEPLOT
 70
     0
102
SHADEPLOTRESLEVEL
 70
     2
102
SHADEPLOTCUSTOMDPI
 70
   300
  0
XRECORD
  5
207
102
{ACAD_REACTORS
330
206
102
}
330
206
100
AcDbXrecord
280
     1
102
MATERIAL
148
0.0
149
0.0
149
0.0
 93
        0
 94
       63
282
     0
 72
     1
 77
     1
171
     1
175
     1
179
     1
273
     0
  0
XRECORD
  5
205
102
{ACAD_REACTORS
330
204
102
}
330
204
100
AcDbXrecord
280
     1
102
MATERIAL
148
0.0
149
0.0
149
0.0
 93
        0
 94
       63
282
     0
 72
     1
 77
     1
171
     1
175
     1
179
     1
273
     0
  0
XRECORD
  5
209
102
{ACAD_REACTORS
330
208
102
}
330
208
100
AcDbXrecord
280
     1
102
MATERIAL
148
0.0
149
0.0
149
0.0
 93
        0
 94
       63
282
     0
 72
     1
 77
     1
171
     1
175
     1
179
     1
273
     0
  0
XRECORD
  5
20B
102
{ACAD_REACTORS
330
20A
102
}
330
20A
100
AcDbXrecord
280
     1
102
ACAD_ROUNDTRIP_PRE2007_TABLESTYLE
 90
      512
 91
        0
  1

 92
      512
 93
        0
  2

 94
      512
 95
        0
  3

  0
ENDSEC
  0
EOF
